rock
 
|tablatures   |lyrics   |discussion forums   |more tabs @ XGuitar.com

Aerosmith tabs

Jaded guitar tab

From: Kyle King 
Band:	Aerosmith 
Album:	Just push play
Song:	Jaded


chords                                         / = hamer on
   
         A  D       {verse}  played over A&D       Bm  D

   1|-------2----|-----------------------------|----2--2----|
   2|----2--3----|-----------------------------|----3--3----|
   3|----2--2----|--------------------6-6-6-4--|----4--2----|
   4|----2--0----|--6/7--6-6/7--6-6/7----------|----4--0----|
   5|----0-------|-----------------------------|----2-------|
   6|------------|-----------------------------|------------|

  chours  A          F#  C#           E      

   1|-----------------3---------------------|------------------------|
   2|----2--2---------2---------------------|-------------------3----|
   3|----2--2---------3--6--6---------9-----|----7--7--7--7--7--4----|
   4|----2--2---------4--6--6---------9-----|----7--7--7--7--7--4----|
   5|----0--0--0-2-4--4--4--4--4-5-7--7-----|----5--5--5--5--5--2----|
   6|-----------------2---------------------|------------------------|

         Em D         C  B Bb

   1|-------2----|-------------|
   2|----5--3----|-------------|
   3|----4--2----|----5--4--3--|
   4|----2--0----|----5--4--3--|
   5|----2-------|----3--2--1--|
   6|------------|-------------|
  development and support by
dmitry ivanov