rock
 
|tablatures   |lyrics   |discussion forums   |more tabs @ XGuitar.com

Aerosmith tabs

Home Tonight bass tab

Artist: Aerosmith
Song: Home Tonight          
Album: Rocks (1976)          
Tabbed By: Bruce Armstrong
 
Intro:
G|----------------------------------------|
D|----------------------------------------|
A|-5------------------5-------------5-----|
E|----------0------------------0-------0--|
 
Verse:
G|------------------------------------------------|
D|------------------------------------------------|
A|-4----------------------------------------------|
E|------------------------------------------------|
 
Pre-Chorus:
G|--------------------------------------------------------------------|
D|--------------------------------------------------------------------|
A|-------------------------4--0-4---4-4---4-4-------------------------|
E|-5----0-5----4----0-4--------------------------2--0-2--2-2--0-7--0--|
 
Chorus:
G|----------------------------------------------------|
D|----------------------------------------------------|
A|----------------------------------------------------|
E|-5----0-5----4----0-4----2----0-2---2-2---0-2--5-7--|
 
G|----------------------------|
D|----------------------------|
A|-5--------5--------5--------|
E|---0-0-0----0-0-0----0-0-0--|
 
Order:
Intro x1
Verse x1
Pre-Chorus x1
Chorus x1
Guitar Solo (Repeat First Part Of Chorus)
Chorus x1
Outro (Repeat End Part Of Chorus)
 
Please Send Your Corrections To: zimzum@freemail.absa.co.za
  development and support by
dmitry ivanov