rock
 
|tablatures   |lyrics   |discussion forums   |more tabs @ XGuitar.com

Aerosmith tabs

Hole In My Soul guitar tab

Hole in My Soul
(Steven Tyler,Joe Perry,Desmond Child)

   E--5----5----7----7----8----8----7----7-----|
   B--6----6----6----6----6----6----6----6-----|
   G----5----5----5----5----5----5----5--------|
   D-------------------------------------------|
   A-------------------------------------------|
   E-------------------------------------------| 
   
repeat.

   lead guitar-
   E---------------------------------------------------------------------|
   B---------------------------------------------------------------------|
   G--------15-18-17~~~~~~--18p17p15----16p15p13----------15-18-18\20~~~~|
   D-----15--------------------------------------------15----------------|
   A--15--------------------------------------------15-------------------|
   E---------------------------------------------------------------------|                                                        

When the rhythm changes, play this:

   E--5----5----7----7----8----8----7----5----5----5----5----5----5----3-|
   B--6----6----6----6----6----6----6----6----5----5----5----5----5----5-|
   G----5----5----5----5----5----5----5----5----4----4----4----4----4----|
   D---------------------------------------------------------------------|
   A---------------------------------------------------------------------|
   E---------------------------------------------------------------------|

   E-3----3----3----|
   B-5----5----5----|
   G---4----4----4--|
   D----------------|
   A----------------|
   E----------------|


 G D         C                           D   G
Is it over, is it over 'cause I'm blowin' out the flame

(G)                      D
Take a walk outside your mind
Am                             C                                 G
Tell me how it feels to be the one who turns the knife inside of me
(G)                       D
Take a look and you will find
Am
There's nothing there girl yeah I swear
     C
I'm telling you girl yeah 'cause there's a 

Eb         Cm                Gm          G#
Hole in my soul that's been killin' me forever
        Fm            C#           Eb
It's a place where a garden never grows
          Eb         Cm            Gm                G#
There's a hole in my soul, yeah I should have known better
             Fm            C#             Eb
'Cause your love's like a thorn without a rose
D
Yeah
G
YEAH!!!!!!!


   solo(part of it, at least)-
   E----------------------------------------------------------------------|
   B--------------------3-5-3\5~~~----5p3p0-------------------------------|
   G--2b--r-\4~~~~~~~-4---------------------2--2b-rp0-2-2b--r-2-0-2p0---0-|
   D------------------------------------------------------------------2---|
   A----------------------------------------------------------------------|
   E----------------------------------------------------------------------|
                                      
   E--------------------3----------------------------------------------|
   B------------5----------5-------------------------------------------|
   G--------2\4----2\4---------2b-rp0--2p1p0---------------------------|
   D-2-2--------------------------------------2p1p0------------2-------|
   A-------------------------------------------------2p1p0-------------|
   E--------------------------------------------------------3----------|

At that point the slide comes in. I may transcribe that part later. I may 
also revise the solo as I worked it out pretty quickly.


Transcribed by Denis Jacob(edj1234@deneb.ci.umoncton.ca) 
           and Bryson Meunier(meunier.1@osu.edu)


Symbols used in transcription:
b = bend
r = release
p = pull-off
~ = vibrato
\ = slide

#----------------------------------PLEASE NOTE---------------------------------#
#This file is the author's own work and represents their interpretation of the #
#song. You may only use this file for private study, scholarship, or research. #
#------------------------------------------------------------------------------#
#

AEROSMITH
"HOLE IN MY SOUL"
FROM "Nine Lives"

Tabbed by: Fernando Medina (al298967@academ02.chi.itesm.mx)
(taked from my mind)

|-5---5---7---7---|-8---8---7---7---|-5---5---7---7---|-8---8---7---7---|
|-6---6---6---6---|-6---6---6---6---|-6---6---6---6---|-6---6---6---6---|
|---5---5---5---5-|---5---5---5---5-|---5---5---5---5-|---5---5---5---5-|
|-----------------|-----------------|-----------------|-----------------|
|-----------------|-----------------|-----------------|-----------------|
|-----------------|-----------------|-----------------|-----------------|
|                 |                 |                 |                 |
|                 |                 |                 |                 |
|-----------------|-----------------|-----------------|-----------------|
|-------12b-r--12-|-12b--10-10b-----|-------12b--13b--|-(13b)-----------|
|----10-----------|--------------12-|----10-----------|-----------------|
|-10--------------|-----------------|-10--------------|-----------------|
|-----------------|-----------------|-----------------|-----------------|
|-----------------|-----------------|-----------------|-----------------|

VERSE:


|-5---5---7---7---|-8---8---7--5---|-5---5---5---5---|-3---3---3---3---|
|-6---6---6---6---|-6---6---6--6---|-5---5---5---5---|-5---5---5---5---|
|---5---5---5---5-|---5---5------5-|---4---4---4---4-|---4---4---4---4-|
|-----------------|----------------|-----------------|-----------------|
|-----------------|----------------|-----------------|-----------------|
|-----------------|----------------|-----------------|-----------------|

|-5---5---7---7---|-8---8---7--5---|-5---5---5---5---|-3---3---3---3---|
|-6---6---6---6---|-6---6---6--6---|-5---5---5---5---|-5---5---5---5---|
|---5---5---5---5-|---5---5------5-|---4---4---4---4-|---4---4---4---4-|
|-----------------|----------------|-----------------|-----------------|
|-----------------|----------------|-----------------|-----------------|
|-----------------|----------------|-----------------|-----------------|
|                 |                |                 |                 |
|                 |                |                 |                 |
|-----------------|------------5-5-|-5-----------3-3-|-3---------------|
|-----------------|------------5-5-|-5-----------5-5-|-5---------------|
|-----------------|------------4-4-|-4-----------4-4-|-4---------------|
|-----------------|----------------|-----------------|-----------------|
|-----------------|----------------|-----------------|-----------------|
|-----------------|----------------|-----------------|-----------------|




PRE-CHORUS:

(gtr1: slight dist. right spkr)
  
 G                               D                           

|-3------3------3------3---------|-2------2------2------2---------|
|---3------3------3------3-------|---3------3------3------3-------|
|-----4------4------4------4-----|-----2------2------2------2-----|
|-------5------5------5------5---|-------0------0------0------0---|
|--------------------------------|--------------------------------|
|--------------------------------|--------------------------------|
|                                |                                |
|(gtr2: distortion. left spkr)   |                                | 
|-3-3-3-3-3-3-3-3-3-3-3-3-3-3-3-3|-2-2-2-2-2-2-2-2-2-2-2-2-2-2-2-2|
|-3-3-3-3-3-3-3-3-3-3-3-3-3-3-3-3|-3-3-3-3-3-3-3-3-3-3-3-3-3-3-3-3|
|-4-4-4-4-4-4-4-4-4-4-4-4-4-4-4-4|-2-2-2-2-2-2-2-2-2-2-2-2-2-2-2-2|
|-5-5-5-5-5-5-5-5-5-5-5-5-5-5-5-5|-0-0-0-0-0-0-0-0-0-0-0-0-0-0-0-0|
|--------------------------------|--------------------------------|
|--------------------------------|--------------------------------|

  C                                            D

|-3------3------3------3---------|-3------3------5------5---------|
|---5------5------5------5-------|---5------5------7------7-------|
|-----5------5------5------5-----|-----5------5------7------7-----|
|-------5------5------5------5---|-------5------5------7------7---|
|--------------------------------|--------------------------------|
|--------------------------------|--------------------------------|
|                                |                                |
|                                |                                |
|-0-0-0-0-0-0-0-0-0-0-0-0-0-0-0-0|-0-0-0-0-0-0-0-0-2-2-2-2-2-2-2-2|
|-1-1-1-1-1-1-1-1-1-1-1-1-1-1-1-1|-1-1-1-1-1-1-1-1-3-3-3-3-3-3-3-3|
|-0-0-0-0-0-0-0-0-0-0-0-0-0-0-0-0|-0-0-0-0-0-0-0-0-2-2-2-2-2-2-2-2|
|-2-2-2-2-2-2-2-2-2-2-2-2-2-2-2-2|-2-2-2-2-2-2-2-2-0-0-0-0-0-0-0-0|
|--------------------------------|--------------------------------|
|--------------------------------|--------------------------------|

G                                D

 gtr1:
|-3-----3-----3-----3-------------|-5-----5-----2-----2------------|
|---3-----3-----3-----3-----------|---7-----7-----3-----3----------|
|.-----4-----4-----4-----4--------|-----7-----7-----2-----2--------|
|.-------5-----5-----5-----5------|-------7-----7-----0-----0------|
|---------------------------------|--------------------------------|
|---------------------------------|--------------------------------|
|                                 |                                |
|gtr2:                            |                                |
|--3-3-3-3-3-3-3-3-3-3-3-3-3-3-3-3|-5-5-5-5-5-5-5-5-2-2-2-2-2-2-2-2|
|--3-3-3-3-3-3-3-3-3-3-3-3-3-3-3-3|-7-7-7-7-7-7-7-7-3-3-3-3-3-3-3-3|
|.-4-4-4-4-4-4-4-4-4-4-4-4-4-4-4-4|-7-7-7-7-7-7-7-7-2-2-2-2-2-2-2-2|
|.-5-5-5-5-5-5-5-5-5-5-5-5-5-5-5-5|-7-7-7-7-7-7-7-7-0-0-0-0-0-0-0-0|
|---------------------------------|--------------------------------|
|---------------------------------|--------------------------------|


Am                               C

|-5-----5-----5-----5------------|-3-----3-----3-----3-------------|
|---5-----5-----5------5---------|---5-----5-----5-----5-----------|
|-----5-----5-----5------5-------|-----5------5-----5----5--------.|
|-------7-----7-----7------7-----|-------5------5-----5----5------.|
|--------------------------------|---------------------------------|
|--------------------------------|---------------------------------|
|                                |                                 |
|                                |                                 |                             
|-5-5-5-5-5-5-5-5-5-5-5-5-5-5-5-5|-3-3-3-3-3-3-3-3-3-3-3-3-3-3-3-3-|
|-5-5-5-5-5-5-5-5-5-5-5-5-5-5-5-5|-5-5-5-5-5-5-5-5-5-5-5-5-5-5-5-5-|
|-5-5-5-5-5-5-5-5-5-5-5-5-5-5-5-5|-5-5-5-5-5-5-5-5-5-5-5-5-5-5-5-5.|
|-7-7-7-7-7-7-7-7-7-7-7-7-7-7-7-7|-5-5-5-5-5-5-5-5-5-5-5-5-5-5-5-5.|
|--------------------------------|---------------------------------|
|--------------------------------|---------------------------------|

CHORUS:

Eb                Cm                Gm              G#
 gtr1:
|---------6---------------3-------|---------3---------------4-------|
|---------8---------------4-------|---------3---------------4-------|
|-8-------8-------5-------5-------|---------3---------------5-------|
|-8-------8-------5-------5-------|-5-------5-------6-------6-------|
|-6---------------3---------------|-5---------------6---------------|
|---------------------------------|-3---------------4---------------|
|gtr2                             |                                 |
|                                 |                                 |
|-6-6-6-6-6-6-6-6-3-3-3-3-3-3-3-3-|-3-3-3-3-3-3-3-3-4-4-4-4-4-4-4-4-|
|-8-8-8-8-8-8-8-8-4-4-4-4-4-4-4-4-|-3-3-3-3-3-3-3-3-4-4-4-4-4-4-4-4-|
|-8-8-8-8-8-8-8-8-5-5-5-5-5-5-5-5-|-3-3-3-3-3-3-3-3-5-5-5-5-5-5-5-5-|
|-8-8-8-8-8-8-8-8-5-5-5-5-5-5-5-5-|-5-5-5-5-5-5-5-5-6-6-6-6-6-6-6-6-|
|---------------------------------|---------------------------------|
|---------------------------------|---------------------------------|


 Fm               G#                Eb              
|---------1----------------4------|---------6---------------6-------|
|---------1----------------4------|---------8---------------8-------|
|---------1----------------5------|-8-------8--------8------8-------|
|-3-------3-------6--------6------|-8-------8--------8------8-------|
|-3---------------6---------------|-6----------------6--------------|
|-1---------------4---------------|---------------------------------|
|                                 |                                 |
|                                 |                                 |
|-1-1-1-1-1-1-1-1-4-4-4-4-4-4-4-4-|-----3---3-------4-p-3----3----3-|
|-1-1-1-1-1-1-1-1-4-4-4-4-4-4-4-4-|---4---4---4---4--------4--------|
|-1-1-1-1-1-1-1-1-5-5-5-5-5-5-5-5-|-3-----------3---------------3---|
|-3-3-3-3-3-3-3-3-6-6-6-6-6-6-6-6-|---------------------------------|
|---------------------------------|---------------------------------|
|---------------------------------|---------------------------------|


Eb                Cm                Gm              G#
 
|---------6---------------3-------|---------3---------------4-------|
|---------8---------------4-------|---------3---------------4-------|
|-8-------8-------5-------5-------|---------3---------------5-------|
|-8-------8-------5-------5-------|-5-------5-------6-------6-------|
|-6---------------3---------------|-5---------------6---------------|
|---------------------------------|-3---------------4---------------|
|                                 |                                 |
|                                 |                                 |
|-6-6-6-6-6-6-6-6-3-3-3-3-3-3-3-3-|-3-3-3-3-3-3-3-3-4-4-4-4-4-4-4-4-|
|-8-8-8-8-8-8-8-8-4-4-4-4-4-4-4-4-|-3-3-3-3-3-3-3-3-4-4-4-4-4-4-4-4-|
|-8-8-8-8-8-8-8-8-5-5-5-5-5-5-5-5-|-3-3-3-3-3-3-3-3-5-5-5-5-5-5-5-5-|
|-8-8-8-8-8-8-8-8-5-5-5-5-5-5-5-5-|-5-5-5-5-5-5-5-5-6-6-6-6-6-6-6-6-|
|---------------------------------|---------------------------------|
|---------------------------------|---------------------------------|


  Fm              G#                Eb              D
|---------1----------------4------|---------6---------------5-------|
|---------1----------------4------|---------8---------------7-------|
|---------1----------------5------|-8-------8-------7-------7-------|
|-3-------3-------6--------6------|-8-------8-------7-------7-------|
|-3---------------6---------------|-6---------------5---------------|
|-1---------------4---------------|---------------------------------|
|                                 |                                 |
|                                 |                                 |
|-1-1-1-1-1-1-1-1-4-4-4-4-4-4-4-4-|-6-6-6-6-6-6-6-6-5-5-5-5-5-5-5-5-|
|-1-1-1-1-1-1-1-1-4-4-4-4-4-4-4-4-|-8-8-8-8-8-8-8-8-7-7-7-7-7-7-7-7-|
|-1-1-1-1-1-1-1-1-5-5-5-5-5-5-5-5-|-8-8-8-8-8-8-8-8-7-7-7-7-7-7-7-7-|
|-3-3-3-3-3-3-3-3-6-6-6-6-6-6-6-6-|-8-8-8-8-8-8-8-8-7-7-7-7-7-7-7-7-|
|---------------------------------|---------------------------------|
|---------------------------------|---------------------------------|

  G
|-3---3---3---3---3---3---3---3---|-3---3---3---3---3---3---3---3---|
|-3---3---3---3---3---3---3---3---|-3---3---3---3---3---3---3---3---|
|-5---5---5---5---5---5---5---5---|-4---4---4---4---4---4---4---4---|
|-5---5---5---5---5---5---5---5---|-5---5---5---5---5---5---5---5---|
|-5---5---5---5---5---5---5---5---|-5---5---5---5---5---5---5---5---|
|-3---3---3---3---3---3---3---3---|-3---3---3---3---3---3---3---3---|
|                                 |                                 |
|                                 |                                 |
|---------------------------------|---------------------------------|
|---------------------------------|---------------------------------|
|-5---5---5---5---5---5---5---5---|-4---4---4---4---4---4---4---4---|
|-5---5---5---5---5---5---5---5---|-5---5---5---5---5---5---5---5---|
|-5---5---5---5---5---5---5---5---|-5---5---5---5---5---5---5---5---|
|-3---3---3---3---3---3---3---3---|-3---3---3---3---3---3---3---3---|

VERSE:

|-5---5---7---7---|-8---8---7--5---|-5---5---5---5---|-3---3---3---3---|
|-6---6---6---6---|-6---6---6--6---|-5---5---5---5---|-5---5---5---5---|
|---5---5---5---5-|---5---5------5-|---4---4---4---4-|---4---4---4---4-|
|-----------------|----------------|-----------------|-----------------|
|-----------------|----------------|-----------------|-----------------|
|-----------------|----------------|-----------------|-----------------|
|                 |                |                 |                 |
|                 |                |                 |                 |
|-----5-------7---|-----8---7------|-----5-------5---|-----3-------3---|
|-----6-------6---|-----6---6------|-----5-------5---|-----5-------5---|
|-----------------|----------------|-----------------|-----------------|
|-----------------|----------------|-----------------|-----------------|
|-----------------|----------------|-----------------|-----------------|
|-----------------|----------------|-----------------|-----------------|


|-5---5---7---7---|-8---8---7--5------|-5---5---5---5--|-3---3---3---3-----|
|-6---6---6---6---|-6---6---6--6------|-5---5---5---5--|-5---5---5---5-----|
|---5---5---5---5-|---5---5------5----|---4---4---4--4-|---4---4---4---4---|
|-----------------|-------------------|----------------|-------------------|
|-----------------|-------------------|----------------|-------------------|
|-----------------|-------------------|----------------|-------------------|
|                 |                   |                |                   |
|                 |                   |                |                   |
|-----5-------7---|-----8---7---------|---5-------5----|----3--------3-----|
|-----6-------6---|-----6---6---------|---5-------5----|----5--------5-----|
|-----------------|-------------------|----------------|-------------------|
|-----------------|-------------------|----------------|-------------------|
|-----------------|-------------------|----------------|-------------------|
|-----------------|-------------------|----------------|-------------------|
|                 |                   |                |                   |
|                 |                   |                |                   |
|-----------------|-------------------|----------------|-------------------|
|-------12b-r--12-|-12b-r-10-10b-r----|----------------|-------------------|
|----10-----------|----------------12-|----------------|-------------------|
|-10--------------|-------------------|----------------|-------------------|
|-----------------|-------------------|----------------|-------------------|
|-----------------|-------------------|----------------|-------------------|
|                 |                   |                |                   |
|                 |                   |                |                   |
|-----------------|---------------5-5-|-5----------3-3-|-3---3-3-3-3-5-3---|
|-----------------|---------------5-5-|-5----------5-5-|-5---5-5-5-5-5.5---|
|-----------------|---------------4-4-|-4----------4-4-|-4---4-4-4-4-4-4---|
|-----------------|-------------------|----------------|-------------------|
|-----------------|-------------------|----------------|-------------------|
|-----------------|-------------------|----------------|-------------------|

PRE-CHORUS:

(gtr1: slight dist. right spkr)
  
 G                               D                           

|-3------3------3------3---------|-2------2------2------2---------|
|---3------3------3------3-------|---3------3------3------3-------|
|-----4------4------4------4-----|-----2------2------2------2-----|
|-------5------5------5------5---|-------0------0------0------0---|
|--------------------------------|--------------------------------|
|--------------------------------|--------------------------------|
|                                |                                |
|(gtr2: distortion. left spkr)   |                                | 
|-3-3-3-3-3-3-3-3-3-3-3-3-3-3-3-3|-2-2-2-2-2-2-2-2-2-2-2-2-2-2-2-2|
|-3-3-3-3-3-3-3-3-3-3-3-3-3-3-3-3|-3-3-3-3-3-3-3-3-3-3-3-3-3-3-3-3|
|-4-4-4-4-4-4-4-4-4-4-4-4-4-4-4-4|-2-2-2-2-2-2-2-2-2-2-2-2-2-2-2-2|
|-5-5-5-5-5-5-5-5-5-5-5-5-5-5-5-5|-0-0-0-0-0-0-0-0-0-0-0-0-0-0-0-0|
|--------------------------------|--------------------------------|
|--------------------------------|--------------------------------|

  C                                            D

|-3------3------3------3---------|-3------3------5------5---------|
|---5------5------5------5-------|---5------5------7------7-------|
|-----5------5------5------5-----|-----5------5------7------7-----|
|-------5------5------5------5---|-------5------5------7------7---|
|--------------------------------|--------------------------------|
|--------------------------------|--------------------------------|
|                                |                                |
|                                |                                |
|-0-0-0-0-0-0-0-0-0-0-0-0-0-0-0-0|-0-0-0-0-0-0-0-0-2-2-2-2-2-2-2-2|
|-1-1-1-1-1-1-1-1-1-1-1-1-1-1-1-1|-1-1-1-1-1-1-1-1-3-3-3-3-3-3-3-3|
|-0-0-0-0-0-0-0-0-0-0-0-0-0-0-0-0|-0-0-0-0-0-0-0-0-2-2-2-2-2-2-2-2|
|-2-2-2-2-2-2-2-2-2-2-2-2-2-2-2-2|-2-2-2-2-2-2-2-2-0-0-0-0-0-0-0-0|
|--------------------------------|--------------------------------|
|--------------------------------|--------------------------------|

G                                D
 gtr1:
|--3-----3-----3-----3------------|-5-----5-----2-----2------------|
|----3-----3-----3-----3----------|---7-----7-----3-----3----------|
|.-----4-----4-----4-----4--------|-----7-----7-----2-----2--------|
|.-------5-----5-----5-----5------|-------7-----7-----0-----0------|
|---------------------------------|--------------------------------|
|---------------------------------|--------------------------------|
|                                 |                                |
|gtr2:                            |                                |
|--3-3-3-3-3-3-3-3-3-3-3-3-3-3-3-3|-5-5-5-5-5-5-5-5-2-2-2-2-2-2-2-2|
|--3-3-3-3-3-3-3-3-3-3-3-3-3-3-3-3|-7-7-7-7-7-7-7-7-3-3-3-3-3-3-3-3|
|.-4-4-4-4-4-4-4-4-4-4-4-4-4-4-4-4|-7-7-7-7-7-7-7-7-2-2-2-2-2-2-2-2|
|.-5-5-5-5-5-5-5-5-5-5-5-5-5-5-5-5|-7-7-7-7-7-7-7-7-0-0-0-0-0-0-0-0|
|---------------------------------|--------------------------------|
|---------------------------------|--------------------------------|


Am                               C

|-5-----5-----5-----5------------|-3-----3-----3-----3-------------|
|---5-----5-----5------5---------|---5-----5-----5-----5-----------|
|-----5-----5-----5------5-------|-----5------5-----5----5--------.|
|-------7-----7-----7------7-----|-------5------5-----5----5------.|
|--------------------------------|---------------------------------|
|--------------------------------|---------------------------------|
|                                |                                 |
|                                |                                 |                             
|-5-5-5-5-5-5-5-5-5-5-5-5-5-5-5-5|-3-3-3-3-3-3-3-3-3-3-3-3-3-3-3-3-|
|-5-5-5-5-5-5-5-5-5-5-5-5-5-5-5-5|-5-5-5-5-5-5-5-5-5-5-5-5-5-5-5-5-|
|-5-5-5-5-5-5-5-5-5-5-5-5-5-5-5-5|-5-5-5-5-5-5-5-5-5-5-5-5-5-5-5-5.|
|-7-7-7-7-7-7-7-7-7-7-7-7-7-7-7-7|-5-5-5-5-5-5-5-5-5-5-5-5-5-5-5-5.|
|--------------------------------|---------------------------------|
|--------------------------------|---------------------------------|


CHORUS:

Eb                Cm                Gm              G#
 gtr1:
|---------6---------------3-------|---------3---------------4-------|
|---------8---------------4-------|---------3---------------4-------|
|-8-------8-------5-------5-------|---------3---------------5-------|
|-8-------8-------5-------5-------|-5-------5-------6-------6-------|
|-6---------------3---------------|-5---------------6---------------|
|---------------------------------|-3---------------4---------------|
|gtr2                             |                                 |
|                                 |                                 |
|-6-6-6-6-6-6-6-6-3-3-3-3-3-3-3-3-|-3-3-3-3-3-3-3-3-4-4-4-4-4-4-4-4-|
|-8-8-8-8-8-8-8-8-4-4-4-4-4-4-4-4-|-3-3-3-3-3-3-3-3-4-4-4-4-4-4-4-4-|
|-8-8-8-8-8-8-8-8-5-5-5-5-5-5-5-5-|-3-3-3-3-3-3-3-3-5-5-5-5-5-5-5-5-|
|-8-8-8-8-8-8-8-8-5-5-5-5-5-5-5-5-|-5-5-5-5-5-5-5-5-6-6-6-6-6-6-6-6-|
|---------------------------------|---------------------------------|
|---------------------------------|---------------------------------|


 Fm               G#                Eb              
|---------1----------------4------|---------6---------------6-------|
|---------1----------------4------|---------8---------------8-------|
|---------1----------------5------|-8-------8--------8------8-------|
|-3-------3-------6--------6------|-8-------8--------8------8-------|
|-3---------------6---------------|-6----------------6--------------|
|-1---------------4---------------|---------------------------------|
|                                 |                                 |
|                                 |                                 |
|-1-1-1-1-1-1-1-1-4-4-4-4-4-4-4-4-|-----3---3-------4-p-3----3----3-|
|-1-1-1-1-1-1-1-1-4-4-4-4-4-4-4-4-|---4---4---4---4--------4--------|
|-1-1-1-1-1-1-1-1-5-5-5-5-5-5-5-5-|-3-----------3---------------3---|
|-3-3-3-3-3-3-3-3-6-6-6-6-6-6-6-6-|---------------------------------|
|---------------------------------|---------------------------------|
|---------------------------------|---------------------------------|


Eb                Cm                Gm              G#
 
|---------6---------------3-------|---------3---------------4-------|
|---------8---------------4-------|---------3---------------4-------|
|-8-------8-------5-------5-------|---------3---------------5-------|
|-8-------8-------5-------5-------|-5-------5-------6-------6-------|
|-6---------------3---------------|-5---------------6---------------|
|---------------------------------|-3---------------4---------------|
|                                 |                                 |
|                                 |                                 |
|-6-6-6-6-6-6-6-6-3-3-3-3-3-3-3-3-|-3-3-3-3-3-3-3-3-4-4-4-4-4-4-4-4-|
|-8-8-8-8-8-8-8-8-4-4-4-4-4-4-4-4-|-3-3-3-3-3-3-3-3-4-4-4-4-4-4-4-4-|
|-8-8-8-8-8-8-8-8-5-5-5-5-5-5-5-5-|-3-3-3-3-3-3-3-3-5-5-5-5-5-5-5-5-|
|-8-8-8-8-8-8-8-8-5-5-5-5-5-5-5-5-|-5-5-5-5-5-5-5-5-6-6-6-6-6-6-6-6-|
|---------------------------------|---------------------------------|
|---------------------------------|---------------------------------|


  Fm              G#                Eb              D
|---------1----------------4------|---------6---------------5-------|
|---------1----------------4------|---------8---------------7-------|
|---------1----------------5------|-8-------8-------7-------7-------|
|-3-------3-------6--------6------|-8-------8-------7-------7-------|
|-3---------------6---------------|-6---------------5---------------|
|-1---------------4---------------|---------------------------------|
|                                 |                                 |
|                                 |                                 |
|-1-1-1-1-1-1-1-1-4-4-4-4-4-4-4-4-|-6-6-6-6-6-6-6-6-5-5-5-5-5-5-5-5-|
|-1-1-1-1-1-1-1-1-4-4-4-4-4-4-4-4-|-8-8-8-8-8-8-8-8-7-7-7-7-7-7-7-7-|
|-1-1-1-1-1-1-1-1-5-5-5-5-5-5-5-5-|-8-8-8-8-8-8-8-8-7-7-7-7-7-7-7-7-|
|-3-3-3-3-3-3-3-3-6-6-6-6-6-6-6-6-|-8-8-8-8-8-8-8-8-7-7-7-7-7-7-7-7-|
|---------------------------------|---------------------------------|
|---------------------------------|---------------------------------|

  G
|-3---3---3---3---3---3---3---3---|
|-3---3---3---3---3---3---3---3---|
|-5---5---5---5---5---5---5---5---|
|-5---5---5---5---5---5---5---5---|
|-5---5---5---5---5---5---5---5---|
|-3---3---3---3---3---3---3---3---|
|                                 |                                 
|                                 |                                 
|---------------------------------|
|---------------------------------|
|-5---5---5---5---5---5---5---5---|
|-5---5---5---5---5---5---5---5---|
|-5---5---5---5---5---5---5---5---|
|-3---3---3---3---3---3---3---3---|

SOLO:

|--------------------------------|----------------------------------------------|
|-----------------3--5--5~~~~~~--|-5-p-3-p-0------------------------------------|
|-2b-r-4~~~~~~~--4---------------|-----------4--4-p-2-p-0-2-2b-r-2~~~--0-2-0h2p0|
|--------------------------------|-----------------------------------2----------|
|--------------------------------|----------------------------------------------|
|--------------------------------|----------------------------------------------|
|                                |                                              |
|                                |                                              |
|----5-------5------7------7-----|------8---------8---------7---------5---------|
|----6-------6------6------6-----|------6---------6---------6---------6---------|
|--------5------5------5------5--|-----------5---------5-------------------5----|
|--------------------------------|----------------------------------------------|
|--------------------------------|----------------------------------------------|
|--------------------------------|----------------------------------------------|


|--------------------------3-----|----------------------------------------------|
|-----------------5-----------5--|----------------------------------------------|
|------------2/4------2/4--------|-2b--0-2--0-h2-p-0----------------------------|
|-2--0--2~~~---------------------|--------------------2-0-2--0-h-2-p0---------2-|
|--------------------------------|----------------------------------------------|
|--------------------------------|-------------------------------------5---3----|
|                                |                                              |
|                                |                                              |
|----5-------5------5------5-----|------3---------3---------3---------3---------|
|----5-------5------5------5-----|------5---------4---------5---------5---------|
|--------4------4------4------4--|-----------4---------4---------4---------4----|
|--------------------------------|----------------------------------------------|
|--------------------------------|----------------------------------------------|
|--------------------------------|----------------------------------------------|

 *w/slide-----------------------------------------------------------------------

|---------------------------------|---------------------------------------------|
|---------------------------------|---------------------------------------------|
|-*-9---/--10-------/12-----12-/--|--/---14-----14---/---17------17---/---16----|
|---------------------------------|---------------------------------------------|
|---------------------------------|---------------------------------------------|
|---------------------------------|---------------------------------------------|
|                                 |                                             |
|                                 |                                             |
|----5-------5------7------7------|-----8---------8---------7---------5---------|
|----6-------6------6------6------|-----6---------6---------6---------6---------|
|--------5------5------5------5---|----------5---------5-------------------5----|
|---------------------------------|---------------------------------------------|
|---------------------------------|---------------------------------------------|
|---------------------------------|---------------------------------------------|

 --------------------------------------------------------------without/slide

|---------------------------------|---------------------------------------------|
|---17------------17--/15---------|------------------------------------------17-|
|---------14/16--------------16---|----/-14-----/-12-----12-----/-9------/16----|
|---------------------------------|---------------------------------------------|
|---------------------------------|---------------------------------------------|
|---------------------------------|---------------------------------------------|
|                                 |                                             |
|                                 |                                             |
|----5-------5------5------5------|-----3---------3---------3---------3---------|
|----5-------5------5------5------|-----5---------5---------5---------5---------|
|--------4------4------4------4---|----------4---------4---------4---------4----|
|---------------------------------|---------------------------------------------|
|---------------------------------|---------------------------------------------|
|---------------------------------|---------------------------------------------|


PRE-CHORUS:

(gtr1: slight dist. right spkr)
  
 G                               D                           

|-3------3------3------3---------|-2------2------2------2---------|
|---3------3------3------3-------|---3------3------3------3-------|
|-----4------4------4------4-----|-----2------2------2------2-----|
|-------5------5------5------5---|-------0------0------0------0---|
|--------------------------------|--------------------------------|
|--------------------------------|--------------------------------|
|                                |                                |
|(gtr2: distortion. left spkr)   |                                | 
|-3-3-3-3-3-3-3-3-3-3-3-3-3-3-3-3|-2-2-2-2-2-2-2-2-2-2-2-2-2-2-2-2|
|-3-3-3-3-3-3-3-3-3-3-3-3-3-3-3-3|-3-3-3-3-3-3-3-3-3-3-3-3-3-3-3-3|
|-4-4-4-4-4-4-4-4-4-4-4-4-4-4-4-4|-2-2-2-2-2-2-2-2-2-2-2-2-2-2-2-2|
|-5-5-5-5-5-5-5-5-5-5-5-5-5-5-5-5|-0-0-0-0-0-0-0-0-0-0-0-0-0-0-0-0|
|--------------------------------|--------------------------------|
|--------------------------------|--------------------------------|

  C                                            D

|-3------3------3------3---------|-3------3------5------5---------|
|---5------5------5------5-------|---5------5------7------7-------|
|-----5------5------5------5-----|-----5------5------7------7-----|
|-------5------5------5------5---|-------5------5------7------7---|
|--------------------------------|--------------------------------|
|--------------------------------|--------------------------------|
|                                |                                |
|                                |                                |
|-0-0-0-0-0-0-0-0-0-0-0-0-0-0-0-0|-0-0-0-0-0-0-0-0-2-2-2-2-2-2-2-2|
|-1-1-1-1-1-1-1-1-1-1-1-1-1-1-1-1|-1-1-1-1-1-1-1-1-3-3-3-3-3-3-3-3|
|-0-0-0-0-0-0-0-0-0-0-0-0-0-0-0-0|-0-0-0-0-0-0-0-0-2-2-2-2-2-2-2-2|
|-2-2-2-2-2-2-2-2-2-2-2-2-2-2-2-2|-2-2-2-2-2-2-2-2-0-0-0-0-0-0-0-0|
|--------------------------------|--------------------------------|
|--------------------------------|--------------------------------|

G                                D
 gtr1:
|--3-----3-----3-----3------------|-5-----5-----2-----2------------|
|----3-----3-----3-----3----------|---7-----7-----3-----3----------|
|.-----4-----4-----4-----4--------|-----7-----7-----2-----2--------|
|.-------5-----5-----5-----5------|-------7-----7-----0-----0------|
|---------------------------------|--------------------------------|
|---------------------------------|--------------------------------|
|                                 |                                |
|gtr2:                            |                                |
|--3-3-3-3-3-3-3-3-3-3-3-3-3-3-3-3|-5-5-5-5-5-5-5-5-2-2-2-2-2-2-2-2|
|--3-3-3-3-3-3-3-3-3-3-3-3-3-3-3-3|-7-7-7-7-7-7-7-7-3-3-3-3-3-3-3-3|
|.-4-4-4-4-4-4-4-4-4-4-4-4-4-4-4-4|-7-7-7-7-7-7-7-7-2-2-2-2-2-2-2-2|
|.-5-5-5-5-5-5-5-5-5-5-5-5-5-5-5-5|-7-7-7-7-7-7-7-7-0-0-0-0-0-0-0-0|
|---------------------------------|--------------------------------|
|---------------------------------|--------------------------------|


Am                               C

|-5-----5-----5-----5------------|-3-----3-----3-----3-------------|
|---5-----5-----5------5---------|---5-----5-----5-----5-----------|
|-----5-----5-----5------5-------|-----5------5-----5----5--------.|
|-------7-----7-----7------7-----|-------5------5-----5----5------.|
|--------------------------------|---------------------------------|
|--------------------------------|---------------------------------|
|                                |                                 |
|                                |                                 |                             
|-5-5-5-5-5-5-5-5-5-5-5-5-5-5-5-5|-3-3-3-3-3-3-3-3-3-3-3-3-3-3-3-3-|
|-5-5-5-5-5-5-5-5-5-5-5-5-5-5-5-5|-5-5-5-5-5-5-5-5-5-5-5-5-5-5-5-5-|
|-5-5-5-5-5-5-5-5-5-5-5-5-5-5-5-5|-5-5-5-5-5-5-5-5-5-5-5-5-5-5-5-5.|
|-7-7-7-7-7-7-7-7-7-7-7-7-7-7-7-7|-5-5-5-5-5-5-5-5-5-5-5-5-5-5-5-5.|
|--------------------------------|---------------------------------|
|--------------------------------|---------------------------------|

CHORUS:

Eb                Cm                Gm              G#
 gtr1:
|---------6---------------3-------|---------3---------------4-------|
|---------8---------------4-------|---------3---------------4-------|
|-8-------8-------5-------5-------|---------3---------------5-------|
|-8-------8-------5-------5-------|-5-------5-------6-------6-------|
|-6---------------3---------------|-5---------------6---------------|
|---------------------------------|-3---------------4---------------|
|gtr2                             |                                 |
|                                 |                                 |
|-6-6-6-6-6-6-6-6-3-3-3-3-3-3-3-3-|-3-3-3-3-3-3-3-3-4-4-4-4-4-4-4-4-|
|-8-8-8-8-8-8-8-8-4-4-4-4-4-4-4-4-|-3-3-3-3-3-3-3-3-4-4-4-4-4-4-4-4-|
|-8-8-8-8-8-8-8-8-5-5-5-5-5-5-5-5-|-3-3-3-3-3-3-3-3-5-5-5-5-5-5-5-5-|
|-8-8-8-8-8-8-8-8-5-5-5-5-5-5-5-5-|-5-5-5-5-5-5-5-5-6-6-6-6-6-6-6-6-|
|---------------------------------|---------------------------------|
|---------------------------------|---------------------------------|


 Fm               G#                Eb              
|---------1----------------4------|---------------------------|
|---------1----------------4------|---------------------------|
|---------1----------------5------|-8-------8----8----8-------|
|-3-------3-------6--------6------|-8-------8----8----8-------|
|-3---------------6---------------|-6-------6----6----6-------|
|-1---------------4---------------|---------------------------|
|                                 |                           |
|                                 |                           |
|-1-1-1-1-1-1-1-1-4-4-4-4-4-4-4-4-|---------------------------|
|-1-1-1-1-1-1-1-1-4-4-4-4-4-4-4-4-|---------------------------|
|-1-1-1-1-1-1-1-1-5-5-5-5-5-5-5-5-|---------------------------|
|-3-3-3-3-3-3-3-3-6-6-6-6-6-6-6-6-|---------------------------|
|---------------------------------|---------------------------|
|---------------------------------|---------------------------|


Eb                Cm                Gm              G#
 
|---------6---------------3-------|---------3---------------4-------|
|---------8---------------4-------|---------3---------------4-------|
|-8-------8-------5-------5-------|---------3---------------5-------|
|-8-------8-------5-------5-------|-5-------5-------6-------6-------|
|-6---------------3---------------|-5---------------6---------------|
|---------------------------------|-3---------------4---------------|
|                                 |                                 |
|                                 |                                 |
|-6-6-6-6-6-6-6-6-3-3-3-3-3-3-3-3-|-3-3-3-3-3-3-3-3-4-4-4-4-4-4-4-4-|
|-8-8-8-8-8-8-8-8-4-4-4-4-4-4-4-4-|-3-3-3-3-3-3-3-3-4-4-4-4-4-4-4-4-|
|-8-8-8-8-8-8-8-8-5-5-5-5-5-5-5-5-|-3-3-3-3-3-3-3-3-5-5-5-5-5-5-5-5-|
|-8-8-8-8-8-8-8-8-5-5-5-5-5-5-5-5-|-5-5-5-5-5-5-5-5-6-6-6-6-6-6-6-6-|
|---------------------------------|---------------------------------|
|---------------------------------|---------------------------------|


  Fm              G#                Eb              D
|---------1----------------4------|---------6---------------5-------|
|---------1----------------4------|---------8---------------7-------|
|---------1----------------5------|-8-------8-------7-------7-------|
|-3-------3-------6--------6------|-8-------8-------7-------7-------|
|-3---------------6---------------|-6---------------5---------------|
|-1---------------4---------------|---------------------------------|
|                                 |                                 |
|                                 |                                 |
|-1-1-1-1-1-1-1-1-4-4-4-4-4-4-4-4-|-6-6-6-6-6-6-6-6-5-5-5-5-5-5-5-5-|
|-1-1-1-1-1-1-1-1-4-4-4-4-4-4-4-4-|-8-8-8-8-8-8-8-8-7-7-7-7-7-7-7-7-|
|-1-1-1-1-1-1-1-1-5-5-5-5-5-5-5-5-|-8-8-8-8-8-8-8-8-7-7-7-7-7-7-7-7-|
|-3-3-3-3-3-3-3-3-6-6-6-6-6-6-6-6-|-8-8-8-8-8-8-8-8-7-7-7-7-7-7-7-7-|
|---------------------------------|---------------------------------|
|---------------------------------|---------------------------------|


  G
|-3---3---3---3---3---3---3---3---|
|-3---3---3---3---3---3---3---3---|
|-5---5---5---5---5---5---5---5---|
|-5---5---5---5---5---5---5---5---|
|-5---5---5---5---5---5---5---5---|
|-3---3---3---3---3---3---3---3---|
|                                 |                                 
|                                 |                                 
|---------------------------------|
|---------------------------------|
|-5---5---5---5---5---5---5---5---|
|-5---5---5---5---5---5---5---5---|
|-5---5---5---5---5---5---5---5---|
|-3---3---3---3---3---3---3---3---|


OUTRO:


|-5---5---7---7---|-8---8---7---7---|-5---5---7---7---|-8---8---7---7---|
|-6---6---6---6---|-6---6---6---6---|-6---6---6---6---|-6---6---6---6---|
|---5---5---5---5-|---5---5---5---5-|---5---5---5---5-|---5---5---5---5-|
|-----------------|-----------------|-----------------|-----------------|
|-----------------|-----------------|-----------------|-----------------|
|-----------------|-----------------|-----------------|-----------------|
|                 |                 |                 |                 |
|                 |                 |                 |                 |
|-----------------|-----------------|-----------------|-----------------|
|-------12b-r--12-|-12b--10-10b-----|-------12b--13b--|-(13b)-----------|
|----10-----------|--------------12-|----10-----------|-----------------|
|-10--------------|-----------------|-10--------------|-----------------|
|-----------------|-----------------|-----------------|-----------------|
|-----------------|-----------------|-----------------|-----------------|


REPEAT AND FADE:

|-5---5---7---7---|-8---8---7---7---|-5---5---7---7---|-8---8---7---7---|
|-6---6---6---6---|-6---6---6---6---|-6---6---6---6---|-6---6---6---6---|
|---5---5---5---5-|---5---5---5---5-|---5---5---5---5-|---5---5---5---5-|
|-----------------|-----------------|-----------------|-----------------|
|-----------------|-----------------|-----------------|-----------------|
|-----------------|-----------------|-----------------|-----------------|






  development and support by
dmitry ivanov