rock
 
|tablatures   |lyrics   |discussion forums   |more tabs @ XGuitar.com

Aerosmith tabs

Fly Away From Here bass tab

Artist: Aerosmith
Song: Fly Away From Here
Tabbed by Patrick (TheRockhound666@aol.com)

intro
G:|---------------------------|
D:|---------------------------|
A:|---------0~----------0~----|
E:|---0~----------0~----------|

verse#1
G:|-----------------------------------|
D:|-----------------------------------|
A:|-------------0~---0-2-----7-7--7---|
E:|---0~---4~-------------------------|

G:|---------------------------------------------------------------------|
D:|---------------------------------------------------------------------|
A:|-------------0~---0-2--------------4~--2~--0~--0-2---4~--2~--0~--2---|
E:|---0~---4~-----------------------------------------------------------|

chorus
G:|-------------------------------------------|
D:|-------------------------------------------|
A:|-----------------------0--0-0-0---0--0-0-0-|
E:|-0--0-0-0---4--4-4-4-----------------------|

G:|-------------------------------------------|
D:|-------------------------------------------|
A:|-----------------------0--0-0-0---0--0-0-0-|
E:|-0--0-0-0---4--4-4-4-----------------------|

G:|---------------------------------------------|
D:|---------------------------------------------|
A:|--4---2-----------------------------19-19-19-|
E:|----------2--2-2-2--2-4-5---5---5------------|

G:|-------------|
D:|-------------|
A:|--------0~---|
E:|---0~--------|

verse#2
G:|-------------------------------------------|
D:|-------------------------------------------|
A:|-----------------------0--0---0---0--0---0-|
E:|-0--0-0-0---4--4-4-4--------2----------2---|

G:|-------------------------------------------|
D:|-------------------------------------------|
A:|-----------------------0--0---0---0--2-4-5-|
E:|-0--0-0-0---4--4-4-4--------2--------------|

G:|----------------------------------|
D:|----------------------------------|
A:|-4~--2~--0~--0-2---4~--2~--0~--2--|
E:|----------------------------------|

chorus
G:|-------------------------------------------|
D:|-------------------------------------------|
A:|-----------------------0--0-0-0---0--0-0-0-|
E:|-0--0-0-0---4--4-4-4-----------------------|

G:|----------------------------------------------|
D:|----------------------------------------------|
A:|-----------------------0--0-0-0---0--2-5-7-12-|
E:|-0--0-0-0---4--4-4-4--------------------------|

G:|----------------------------------------------------|
D:|----------------------------------------------------|
A:|--4-0-4---2-----------------------------------------|
E:|--------------2--2/14\2--2-4-5---5---5---17-17-17-5-|

bridge
G:|-------------------------------------------|
D:|-------------------------------------------|
A:|-2-2-2-2-0-0-0-0-----0-0-2-2-2-2-----------|
E:|-----------------3-3-----------------------|

G:|-------------------------------------------|
D:|-------------------------------------------|
A:|-2-2-2-2-0-0-0-0-----0-0-----0-0-2-2-2-2---|
E:|-----------------3-3-----3-3---------------|

G:|---------------------------------|
D:|---------------------------------|
A:|-4~--2~--0~--0-2---4~--2~--0~----|
E:|---------------------------------|

chorus
G:|-------------------------------------------|
D:|-------------------------------------------|
A:|-----------------------0--0-0-0---0--0-0-0-|
E:|-0~---------4--4-4-4-----------------------|

G:|----------------------------------------------|
D:|----------------------------------------------|
A:|-----------------------0--0-0-0---0--2-5-7-12-|
E:|-0--0-0-0---4--4-4-4--------------------------|

G:|-----------------------------------------------------------|
D:|-----------------------------------------------------------|
A:|-----------------------0--0-0-0---0-12-0-12-0-14-0-16-0-19-|
E:|-0--0-0-0---4--4-4-4---------------------------------------|

G:|--------------------------------------------------|
D:|--------------------------------------------------|
A:|--4-0-4---2---------------------------------------|
E:|--------------2--2-2-2--2-4-5---5---5---5---5---5-|

ending
G:|------------------|
D:|------------------|
A:|--------0~--------|
E:|---0~--------0~---|
  development and support by
dmitry ivanov