rock
 
|tablatures   |lyrics   |discussion forums   |more tabs @ XGuitar.com

Aerosmith tabs

Dude (Looks Like A Lady) bass tab

From: Metallica034564@cs.com
Date: Thu, 18 Oct 2001 21:28:28 EDT
Subject: a/aerosmith/dude_looks_like_a_lady.btab

Artist: Aerosmith
Song:   Dude Looks Like A Lady
Album:  Permanent Vacation (1987)
Tabbed by Dylan Maguire
Intro       3x
G||--------------||--------------------------------------------------|
D||o-----------o||-------------------------------12-12-12-12-14------|
A||o-----------o||--0-12-12-12-12-12-12-12----------------------10--|
E||---0-5------||---------------------------------------------------|

Verses (4x)/Solo (8x)
G||---------------------------------------||
D||o-----------------------------2-------o||
A||o------------------5-5-5-5------------o||
E||---5-5-5--2-3-4-5-----------2-3-4------||

Chorus (repeat twice per each 'Dude Looks like a lady')
G||---------------------------------||
D||o---------------------------2---o||
A||o------------------5-5-5-5------o||
E||---5-5-5--2-3-4-5------------3---||

Bridge (before guitar solo)  3x
G||------------------------------||----------------------------------|
D||o----------------------------o||----------------------------------|
A||o----------------------------o||--------------------3-3-3-3--7-7--|
E||---5--3-3--1--0-0-0-0-0-0-0---||--4-4-4-4--6-6-6-6----------------|


>Bridge (after guitar solo)     3x
G||--------------------------------||------------------------|
D||o------------------------------o||------------------------|
A||o--7-7-7-5-5-7-----------------o||--7-7-7-5-5-7/----------|
E||--------------0-0-0-0-0-0-0-0---||---------------------3--|   

Enjoy!
  development and support by
dmitry ivanov