rock
 
|tablatures   |lyrics   |discussion forums   |more tabs @ XGuitar.com

Aerosmith tabs

Draw The Line guitar tab

From: Denis Jacob 
Subject: DRAW THE LINE
To: aerosmith-fans@Dartmouth.EDU

Hope nobody gets pissed off at me cause I inserted my version of the 
lyrics at the end

DRAW THE LINE
Tune Open A - E  A  E  A  C#  E
                   +2 +2  +2

|----------------------------------|
|----------------------------------|
|-0---------7-7-7-7-7-7-7-7-7-7-7--|
|-0---------7-7-7-7-7-7-7-7-7-7-7--|
|-0---------7-7-7-7-7-7-7-7-7-7-7--|
|----------------------------------|

|-----------------5-----3----------|
|-------------------3--------------|
|---------------------0------------|
|----------------------------------|
|-0-2-3-4-3-2-0--------------------|
|----------------------------------|

  Checkmate honey, beat you at your own damn game, etc...
|-------------------------------------5-----3----------|
|---------------------------------------3--------------|
|-7-7-7-7-7-7-7-7-7-7---------------------0------------|
|-7-7-7-7-7-7-7-7-7-7----------------------------------|
|-7-7-7-7-7-7-7-7-7-7-0-2-3-4-3-2-0--------------------|
|------------------------------------------------------|

  Heads I win, tails you lose, Lord it's such a crime
|------------------------------------------------------|
|------------------------------------------------------|
|-5-5-5-5-5-5-5-7-7-7-7-7-7-7-7-7-7-12-12-12-12-12-12--|
|-5-5-5-5-5-5-5-7-7-7-7-7-7-7-7-7-7-12-12-12-12-12-12--|
|-5-5-5-5-5-5-5-7-7-7-7-7-7-7-7-7-7-12-12-12-12-12-12--|
|------------------------------------------------------|

After second verse:
  No dice honey you the salt, you the queen of the brine
|------------------------------------------------------|
|------------------------------------------------------|
|-5-5-5-5-5-5-5-7-7-7-7-7-7-7-7-7-7-12-12-12-12-12-12--|
|-5-5-5-5-5-5-5-7-7-7-7-7-7-7-7-7-7-12-12-12-12-12-12--|
|-5-5-5-5-5-5-5-7-7-7-7-7-7-7-7-7-7-12-12-12-12-12-12--|
|------------------------------------------------------|

  Checkmate honey you're the only one who's got to choose
|------------------------------------------------------|
|------------------------------------------------------|
|-7-7-7-7-7-7-7-5-5-5-5-5-5-5-5-5-5-7-7-7-7-7-7-7-7-7--|
|-7-7-7-7-7-7-7-5-5-5-5-5-5-5-5-5-5-7-7-7-7-7-7-7-7-7--|
|-7-7-7-7-7-7-7-5-5-5-5-5-5-5-5-5-5-7-7-7-7-7-7-7-7-7--|
|------------------------------------------------------|

Bridge:
 AH, CHECKMATE DON'T BE LATE TAKE ANOTHER PULL...
|------------------------------------------------------|
|------------------------------------------------------|
|-7-7-7-7-7-7-7-7-7-7-7-7-7-7-7-7-7-7-7-7-7-7-7-7-7-7--|
|-7-7-7-7-7-7-7-7-7-7-7-7-7-7-7-7-7-7-7-7-7-7-7-7-7-7--|
|-7-7-7-7-7-7-7-7-7-7-7-7-7-7-7-7-7-7-7-7-7-7-7-7-7-7--|
|------------------------------------------------------|

Denis
edj1234@bosoleil.ci.umoncton.ca

  development and support by
dmitry ivanov