rock
 
|tablatures   |lyrics   |discussion forums   |more tabs @ XGuitar.com

Aerosmith tabs

Deuces Are Wild bass tab

Nobody has this song tabbed out..or at least not any good..so I took it upon
myself to tab it out..great song. Please rate.



Intro/Verse 1 (Ahhhh...Ya de at-na...)
||----||---------------------------------------------------------------------||
||----||---------------------------------------------------------------------||
||----||----------10\3--3/7---5\-------10\3--3/7---5\-------10\3---3-----/7--||
||-3*-||--10\3--------------------3*-------------------3*-------------0------||


(My lover with no jet lag...)
||------------------------------------------------------------||
||------------------------------------------------------------||
||-5--------5-----5------5----3*-------5-------5-----5--------||
||-------5-----5------5----------3*---------5-----5-----5\1*--||


Chorus (I love ya cuz your deuces are wild...)
||---------------------------------------------------------------||
||---------------------------------------------------------------||
||-----------3*-----1--1---------------------3*-----1--1---------||
||--3--3--1---------------1--3*-----3--3--1---------------1--3*--||


Verse 2 (Like deja vu...)
||------------------------------------------------||
||------------------------------------------------||
||----------10\3--3/7---5\-------10\3---3-----/7--||
||--10\3--------------------3*-------------0------||


||------------------------------------------------------------||
||------------------------------------------------------------||
||-5--------5-----5------5----3*-------5-------5-----5--------||
||-------5-----5------5----------3*---------5-----5-----5\1*--||



Chorus                        1.2.
||-------------------------------||------------------------------------------------||
||-------------------------------||--5--5-3----------------------------------------||
||-----------3*-----1--1---------||---------3---1--1------------------3---1--1-----||
||--3--3--1---------------1--3*--||-------------------1--3---3--3--1------------1--||


Harmonica Interlude (the timings a bit rough here..listen very closely to the song to get it)
||--7--5---3h5p3---------------------------------------------------------||
||---------------5--3----------------------------------------------------||
||---------------------5--3---1--1-1---3*---3--5*--------7\1--1-1--3--3--||
||--------------------------------------------------0*-------------------||


Chorus/Outro                   x6
||-------------------------------||------------||
||-------------------------------||-----5*-----||
||-----------3*-----1--1---------||------------||
||--3--3--1---------------1--3*--||------------||


100% Correct..or if you have any additions or possible corrections of your own
email me at mudvayner_2002@hotmail.com. Thanks for looking.
  development and support by
dmitry ivanov