rock
 
|tablatures   |lyrics   |discussion forums   |more tabs @ XGuitar.com

Aerosmith tabs

Crazy guitar tab

AEROSMITH - CRAZY  SOLO

PROPS GO TO: Albatros

CRAZY(live) / Aerosmith   guitar solo
-----------------------
Performed by Joe Perry in "A little south of sanity"
Tabbed by Albatros (otarie68@katamail.com)


Another tab of a live solo I find intersting. 


e|----------|------------------------------------------------------|
b|----------|------------------------------------------------------|
g|----------|---------------------------2--4--4b(6)b(7)--2--4--2---|
d|----------|-------4b(5)r4--2--2--4-------------------------------|
a|----------|------------------------------------------------------|
E|---7b(8)--|--5---------------------------------------------------|

  about 15X

e|-----------------------------------------5---5--5--7b(9)---5--5--|
b|--2h3p2-----2-----------------5b(7)r5------5------------------7--|
g|---------4----4---(4)b(6)r4--------------------------------------|
d|-----------------------------------------------------------------|
a|-----------------------------------------------------------------|
E|-----------------------------------------------------------------|
                     

e|---5---5-----5-----8b(10)-(8)b(10)r8--5-------5--5--5-------5----|
b|---7-----5h7----5------------------------5h7-----------5h7----5--|
g|-----------------------------------------------------------------|
d|-----------------------------------------------------------------|
a|-----------------------------------------------------------------|
E|-----------------------------------------------------------------|

e|-----10--------10--------17----17----17----19b(21)--(19)b(21)r19-|
b|--------10--------10--------17----17----17-----------------------|
g|--10------10--------9--------------------------------------------|
d|-----------------------------------------------------------------|
a|-----------------------------------------------------------------|
E|-----------------------------------------------------------------|

e|---------------------------------------14-----14-----------------|
b|------------14h15p14-----14--17b(19)---14--14----14--17--15--14--|
g|--16b(18)~------------16-----------------------------------------|
d|-----------------------------------------------------------------|
a|-----------------------------------------------------------------|
E|-----------------------------------------------------------------|

e|----------------------------------------14--15--17--15--14h15p14-|
b|-----14----------------------------------------------------------|
g|--16----14--(16)b(18)r16--14-----14--16--------------------------|
d|-------------------------------16--------------------------------|
a|-----------------------------------------------------------------|
E|-----------------------------------------------------------------|



e|-----14----------------------17----17----17----17----17----22(24)|
b|--15-----14h15p14--------/17----17----17----17----17----17-------|
g|-------------------16--------------------------------------------|
d|-----------------------------------------------------------------|
a|-----------------------------------------------------------------|
E|-----------------------------------------------------------------|


e|--(22)b(24)--(22)b(24)--(22)b(24)r22--17--|-----------|----------|
b|------------------------------------------|--------17-|--17--17--|
g|------------------------------------------|-19b(21)---|----------|
d|------------------------------------------|-----------|----------|
a|------------------------------------------|-----------|----------|
E|------------------------------------------|-----------|----------|
                                                 6X

e|--------------------------|
b|--17--17--17--17--19~-----|
g|--------------------------|
d|--------------------------|
a|--------------------------|
E|--------------------------|


|-----------------------------------------------------| 
|For any comments, suggestions, corrections, feedback |
|otarie68@katamail.com                                |
|-----------------------------------------------------|
  development and support by
dmitry ivanov