rock
 
|tablatures   |lyrics   |discussion forums   |more tabs @ XGuitar.com

Aerosmith tabs

Crazy bass tab

Aerosmith
Crazy

Intro

G|-------------------------------|---------------------------------------|
D|-------------------------------|---------------------------------------|
A|-----------------5----5--5--5--|--5/7----------------5------5----5--5--|
E|-5----5--2----2----------------|-----5----5--2----2-------5----5-------|

Verse

|-----------------------------------|---------------------------------------|
|-----------------------------------|---------------------------------------|
|-----------5----5/9----9\\5----7-5--|---------5----------5/9----9\\5----5-5--|
|--2/5----5-------------------------|--5----5-------------------------------|

Pre-Chorus

|------------------------------------|
|----------4---4---------------------|
|--7----7---------4---------------5--|
|--------------------2----3----3-----|

|-----------------------------------------------------------|
|---------------4------4------------------------------------|
|--5----7----7------------4---------------5--5--5--7--7--7--|
|----------------------------2----3----3--------------------|

Chorus

|----------------------------|
|----------------------------|
|----------------------------|
|--5------5--2----------2--5-|

|---------7--------7------------------------|----------------------|
|------------7--------7---------------------|----------------------|
|--5------------5--------5------------------|----------------------|
|---------------------------------5---------|----5--2----------2--5|

|--------------------------|-------------------------|-----------------------|
|--------------------------|-------------------------|-----------------------|
|--5--5--5--5--5--5--------|-------------------------|-----------------------|
|--------------------0--0--|--0--0--2--4--5----5--5--|--5--4--2----------2-5-|

|---------7--7-7-7--7----|--------7--4---------|----------------------|
|------------------------|---------------------|----------------------|
|--5---------------------|------------------2--|--5--6--7--------7----|
|------------------------|---------------------|----------------------|

|---------------------|---------------------|-----------------------|
|----------------4----|----2------0--0------|-----------------7-----|
|--4----------4-------|---------------------|----5--5------8-----8--|
|---------------------|---------------------|-----------------------|

Verse 2

|-----------------------------------|-----------------------------------|
|-----------------------------------|-----------------------------------|
|-----------5----5/9----9\\5----7-5--|-----------5----5/9----9\\5----7-5--|
|----5----5-------------------------|----5----5-------------------------|

Pre-Chorus

|----------------------------------------|
|--------------4---4---------------------|
|--5-5-7----7---------4---------------5--|
|------------------------2----3----3-----|

|-----------------------------------------------------------|
|---------------4------4------------------------------------|
|--5----7----7------------4---------------5--5--5--7--7--7--|
|----------------------------2----3----3--------------------|

Chorus

|----------------------------|
|----------------------------|
|----------------------------|
|--5------5--2----------2--5-|

|---------7--------7------------------------|----------------------|
|------------7--------7---------------------|----------------------|
|--5------------5--------5------------------|----------------------|
|---------------------------------5---------|----5--2----------2--5|

|--------------------------|-------------------------|-----------------------|
|--------------------------|-------------------------|-----------------------|
|--5--5--5--5--5--5--------|-------------------------|-----------------------|
|--------------------0--0--|--0--0--2--4--5----5--5--|--5--4--2----------2-5-|

|---------7--7-7-7--7----|--------7--4---------|----------------------|
|------------------------|---------------------|----------------------|
|--5---------------------|------------------2--|--5--6--7--------7----|
|------------------------|---------------------|----------------------|

|---------------------|---------------------|-----------------------|
|----------------4----|----2------0--0------|-----------------7-----|
|--4----------4-------|---------------------|----5--5------8-----8--|
|---------------------|---------------------|-----------------------|

Solo

|----------|----------------------|--------------------|
|----------|----------------------|--------------------|
|----------|----------------------|--5--5--5--5--5--5--|
|-5--------|----5--2----------2-5-|--------------------|

|-------------------------------|----------------------|
|-------------------------------|----------------------|
|-------------------------------|----------------------|
|--0--0----0--0--2--4--5--------|----5--2----------2-5-|

|---------7--------7--------------------------|
|------------7--------7-----------------------|
|--5------------5----------5------5-----------|
|------------------------------------5--------|

|----------------------|--------------------------|
|----------------------|--------------------------|
|----------------------|--5--5--5--5--5--5--------|
|----5--2----------2-5-|--------------------0--0--|

|-----------------------|----------------------|
|-----------------------|----------------------|
|-----------------------|----------------------|
|--0--0--2--4--5--------|----5--2----------2-5-|

|---------7--------7--------------------------|
|------------7--------7-----------------------|
|--5------------5----------5------5-----------|
|------------------------------------5--------|

|----------------------|--------------------------|-----------------------|
|----------------------|--------------------------|--------------4--------|
|----------------------|--5--5--5--5--5--5--------|-----------------------|
|----5--2----------2-5-|--------------------0--0--|--0--0--2--4-----------|


Bridge

|----------|---------------------|--------------------|-------------------|
|----------|---------------------|-----------4--------|------2------------|
|--7----7--|--5----------5--5----|--------5-----------|-------------------|
|----------|---------------------|--------------------|-------------------|

Chorus

|-------------------------|--------------------|---------------7--------|
|-------------------------|--------------------|------------------7-----|
|--5--5--5--5--5--5-------|--------------------|--------5------------5--|
|--------------------5----|--------5--2--------|----2-5-----------------|

|--7--------------------|--------------------|--------------------------|
|-----7-----------------|--------------------|--------------------------|
|--------5------5-------|--------------------|--------5--5--5--5--5--5--|
|------------------5----|--------5--2--------|----2-5-------------------|

|-------------------------|--------------------|---------------7--------|
|-------------------------|--------------------|------------------7-----|
|-------------------------|--------------------|--------5------------5--|
|--0--0--0--0--2--4--5----|--------5--2--------|----2-5-----------------|

|--7--------------------|--------------------|--------------------------|
|-----7-----------------|--------------------|--------------------------|
|--------5------5-------|--------------------|--------5--5--5--5--5--5--|
|------------------5----|--------5--2--------|----2-5-------------------|

|-------------------------|--------------------|---------------7--------|
|-------------------------|--------------------|------------------7-----|
|-------------------------|--------------------|--------5------------5--|
|--0--0--0--0--2--4--5----|--------5--2--------|----2-5-----------------|

|--7--------------------|--------------------|--------------------------|
|-----7-----------------|--------------------|--------------------------|
|--------5------5-------|--------------------|--------5--5--5--5--5--5--|
|------------------5----|--------5--2--------|----2-5-------------------|

|-------------------------|--------------------|---------------7--------|
|-------------------------|--------------------|------------------7-----|
|-------------------------|--------------------|--------5------------5--|
|--0--0--0--0--2--4--5----|--------5--2--------|----2-5-----------------|

|--7--------------------|--------------------|--------------------------|
|-----7-----------------|--------------------|--------------------------|
|--------5------5-------|--------------------|--------5--5--5--5--5--5--|
|------------------5----|--------5--2--------|----2-5-------------------|

|-------------------------|------------------|
|-------------------------|------------------|
|-------------------------|------------------|
|--0--0--0--0--2--4--5----|------------------|


by TheBestNeo
  development and support by
dmitry ivanov