rock
 
|tablatures   |lyrics   |discussion forums   |more tabs @ XGuitar.com

Aerosmith tabs

Chip Away The Stone bass tab

<<<<< CHIP AWAY THE STONE >>>>> 
       ---AEROSMITH---

Intro: Guitarra

Figura 1 
"You act like a primadonna..."  2x 
|--------------------------------|
|--------------------------------|
|----------------------2-33333---|
|--2-33333---2-33333-------------|

|--------------------------------|
|--------------------------------|
|--2-33333---2-33333-------------|
|----------------------2-333333--|

|--------------------------------|
|--------------------------------|
|--6-77777---2-33333-------------|
|--------------------------------|


Figura 2 - Refrão
"... chip away ..." 
|--------------------------------|
|--------------------------------|
|----------3---------------------|
|--3-333335-533333-5-333333------|

|--------------------------------|
|----5---5-----------------------|
|--57-757-75 55555555------------|
|----------------------333333333-|

Figura 3 
|--------------------------------|
|--------------------------------|
|-55555-4-33333-4-55555-4-333333-|
|--------------------------------|

Figura 4 - Repetir até o fim
|--------------------------------|
|--------------------------------|
|--33333-00000-------------------|
|--------------33333-33333-------|

>>>>>>>>>>>>>>>>>>>>>>>>>>>>>>>>>>>
ÁLBUM: GEMS (1988) versão de estúdio
BAIXISTA: TOM HAMILTOM 

Trancrita por:
Vinícius Almeida Gomes >>> Vinny Crespo
e-mail: drawtheline@terra.com.br       ICQ 55436441
  development and support by
dmitry ivanov