rock
 
|tablatures   |lyrics   |discussion forums   |more tabs @ XGuitar.com

Aerosmith tabs

Bolivian Ragamuffin guitar tab

verse:
e-----------------------------------------------------------------
B-----------------------------------------------------------------
G-----------------------------------------------------------------
D-----------------------------------------0---2-------------------
A-------------------------0-------1--2----------------------------
E----0----2-3-4------4--------------------------------------------

intro:
e-----------------------------------------------------------------
B-----------------------------------------------------------------
G-----------------------------------------------------------------
D-----------------------------2p0---------------------------------
A----2------------------------------2--2--------------------------
E----0-----2--3--4--5p0--2p0--------0--0--------------------------
  development and support by
dmitry ivanov