rock
 
|tablatures   |lyrics   |discussion forums   |more tabs @ XGuitar.com

Aerosmith tabs

Beyond Beautiful guitar tab

Aerosmith
song:Beyond Beautiful
album:Just Push Play

drop D tuning (low E down to D)

the dailtone at the beginning is an F. if you want to play it, play it like 
this:


E|-------
B|-------
G|--10---
D|-------
A|-------
E|-------

intro like this..do twice


   F
E|-----------------------
B|-----------------------
G|--10p8--10p8---10------
D|------------11----10---
A|-----------------------
E|-----------------------

then it goes something like this:


E|--------------------------*
B|--------------------------*
G|-----------77-------------*
D|-0-0--0--0-77--0-0--0-3---*
A|-0-0--0--0-55--0-0--0-3---*
E|-0-0--0--0-----0-0--0-3---*

do that twice, then this comes in over that

E|----------------------
B|--13---13p12---12/15--
G|----------------------
D|----------------------
A|----------------------
E|----------------------

then end intro with

E|---------
B|---------
G|---------
D|--9--8---(or something)
A|--9--8---
E|--9--8---

for the first part of the verse, do this:

E|--------------------------
B|-66-66--66-66--66--66-----
G|-55-55--55-55--44--33-----
D|--------------------------
A|--------------------------
E|----------------------(0)-


then for the second part of the verse, do the part with the asterisks next 
to it.


chorus:



      yeah, she\'s\'a beyond beautiful, yeah she never been no body\'s
E|------------------------------------------------------------------
B|------------------------------------------------------------------
G|------------------------------------------------------------------
D|-11----------------------6--------8------------------------3------
A|-11----------------------6--------8------------------------3------
E|-11----------------------6--------8------------------------3------

     fool that you be stuck with, yeah, it\'s all about me and you
E|-------------------------------------------------------------------
B|-------------------------------------------------------------------
G|-------------------------------------------------------------------
D|---6---------------------------11--------------------6-------------
A|---6---------------------------11--------------------6-------------
E|---6---------------------------11--------------------6-------------

     believe it or not, this love that we got, is beyond beautiful
E|-------------------------------------------------------------------
B|-------------------------------------------------------------------
G|-------------------------------------------------------------------
D|------8-----------------------------------------10-----13----------
A|------8-----------------------------------------10-----13----------
E|------8-----------------------------------------10-----13----------

heres the solo..its my first attempt at tabbing an aerosmith solo, so here. 
and if the notes arent right, just..bah.

E|---------------------------------------------------------------------
B|------------------------------------------13p12p10-13p12p10-13p12p10-
G|--14-12-14-12-14-12-14-----------13h14h15----------------------------
D|------------------------13h14h15-------------------------------------
A|---------------------------------------------------------------------
E|---------------------------------------------------------------------

E|--13p12p10-13p12p10-13p12p10-10-----b15r-13-------------13-----------
B|--------------------------------------------15p13----13----15p13--15-
G|--------------------------------------------------14-----------------
D|---------------------------------0-----------------------------------
A|---------------------------------------------------------------------
E|---------------------------------------------------------------------

E|------------------
B|----13-------13---
G|-14----12h14------i\'m not sure of the rest of the fast part there..so sue 
me, but the fast part ends like this:
D|------------------
A|------------------
E|------------------

E|---------------------------------------------------------------------
B|-13/15-15-15-15-15---------------------------------------------------
G|---------------------------------------------------------------------
D|--------------------------13-13--------13----------------------------
A|--------------------13h15--------13h15----15p13-13--11/15------------
E|-----------------------------------------------------------15--3/----back 
into chorus.

i think that\'s it..listen for timing.
  development and support by
dmitry ivanov