rock
 
|tablatures   |lyrics   |discussion forums   |more tabs @ XGuitar.com

Aerosmith tabs

Angel bass tab

Artist: Aerosmith
Song: Angel
offspringirl - OffspringGirl108@hotmail.com

Part A                              3X
G|--------------3---|-1-----1-1---3---|-5-----5-5---3---|-1---------------|
D|*-1-----1-1-------|----------------*|-----------------|-----------------|
A|*-----------------|----------------*|-----------------|-----------------|
E|------------------|-----------------|-----------------|-----------------|

Part B
G|-----------------|-----------------|-1-------------1-|-1-------------1-|
D|-1-------------1-|-1-------------1-|-----------------|-----------------|
A|-----------------|-----------------|-----------------|-----------------|
E|-----------------|-----------------|-----------------|-----------------|

G|-----------------|-----------------|-0-------------0-|-1-1-1-1-1-1-1-1-|
D|-1---------------|-----------------|-----------------|-----------------|
A|-------------4---|-3-------------3-|-----------------|-----------------|
E|-----------------|-----------------|-----------------|-----------------|

Part C
G|---3-3-5-5-----5-|-1-----1-1-------|---3-3-5-5-----5-|-1-----1-1-------|
D|-----------------|-----------------|-----------------|-----------------|
A|-----------------|-----------------|-----------------|-----------------|
E|-----------------|-----------------|-----------------|-----------------|

G|---3-3-5-5-----5-|-1-----1-1-----1-|-3-3-3-3-3-3-3-3-|-3---------------|
D|-----------------|-----------------|-----------------|-----------------|
A|-----------------|-----------------|-----------------|-----------------|
E|-----------------|-----------------|-----------------|-----------------|

Part D
G|-------------3---|-1-----1-1---3---|-5-----5-5---3---|-1-----1-1---3---|
D|-1-----1-1-------|-----------------|-----------------|-----------------|
A|-----------------|-----------------|-----------------|-----------------|
E|-----------------|-----------------|-----------------|-----------------|

Part E
G|-3-----3-3---3---|-1-1-1-1-1-1-1-1-|-----------------|-----------------|
D|-----------------|-----------------|-1-1-1-1-1-1-1-1-|-----------------|
A|-----------------|-----------------|-----------------|-3-3-3-3-3-3-3-3-|
E|-----------------|-----------------|-----------------|-----------------|

G|-1-1-1-1-1-1-1-1-|-3-3-3-3-3-3-3-3-|-3-3-3-3-3-3-3-3-|-3---------------|
D|-----------------|-----------------|-----------------|-----------------|
A|-----------------|-----------------|-----------------|-----------------|
E|-----------------|-----------------|-----------------|-----------------|

Part A 1X
Part B 1X
Part C 1X
Part D 1X
Part A 1X (no repeat)
Part B 1X
Part C 1X
Part D 4X (last X, last measure: G:-1-----1-1---1---)
Part E 1X
Part D 8X (start fading 7th X)
  development and support by
dmitry ivanov