rock
 
|tablatures   |lyrics   |discussion forums   |more tabs @ XGuitar.com

Aerosmith tabs

Amazing bass tab

Song: Amazing
Artist: Aerosmith
Album: Get A Grip
Tabbed by: Henrique Luz (hluz2004@hotmail.com)




 Intro                I kept the right ones out...
G-------14-19-16-12------------------------------------------------|-
D-------------------13/14------------------------------------------|-
A-12-12-------------------12---3-----------------------------------|-
E----------------------------5---1-4-3-2-2-1-----------------------|-


 When I lost my grip...
G------------------------------------------------------------------|-
D------------------------------------------------------------------|-
A---------------3-3-3-3--------------------------------------------|-
E-5-5-5-5-5-5-5---------1-1-1-1-4-4-4-4-3-3-3-3-2-2-2-2-1----------|-


 Chorus
G------------------------------------------------------------------|-
D------------------------------------------------------------------|-
A-3-3/7-7-8-8-7-7-----------------3-3/7-7-8-8-7-7------------------|-
E-----------------3-3-3-3-3-3-3-3-----------------3-3-3-3/15-15-15-|-


G------------------------------------------------------------------|-
D------------------------------------------------------------------|-
A----------------0---3-3/15-15-14-14-------------------------------|-
E-13-13-12-12-10---3-----------------------------------------------|-


 That one last shot’s...
G------------------------------------------------------------------|-
D------------------------------------------------------------------|-
A---------5-5-5-5---------3-3-3-2---------5-5-5-5---------3-3-3-3--|-
E-5-5-5-5---------1-1-1-1---------5-5-5-5---------1-1-1-1----------|-


 You have to learn to crawl...
G------------------------------------------------------------------|-
D------------------------------------------------------------------|-
A-------------2-3-3-3-3-----------------------------2/3-0----------|-
E-5-5-5-5-5-5-----------1-1-1-1-4-4-4-4-3-3-3-3-2-2-------2-1------|-


Chorus
G--------------------------------------------------------------9-10|-
D------------------------------------------------------------------|-
A-3-3/7-7-8-8-7-7---------------5-3-3/7-7-8-8-7-7-----------10-----|-
E-----------------3-3-3-3-3-3-3-------------------3-3-3-5-6--------|-



                      Bridge
G------------------------------------------------------------------|-
D------------------------------------------------------------------|-
A-8-8-7-7-5-0-----3---3-5-5-7-7-8----------------------------------|-
E-------------3-3--------------------------------------------------|-


 Guitar solo
G------------------------------------------------------------------|-
D------------------------------------------------------------------|- 2x
A-3-3-3-3â€"5-5-5-5-7-7-7-7-8-8-8-8----------------------------------|-
E---------------------------------3-3-3-3-5-5-5-5-3-3-3-3-1-1-1-1--|-


G------------------------------------------------------------------|-
D------------------------------------------------------------------|- 2x
A-3-3-3-3â€"5---5-5-7---7-7-8---8-8----------------------------------|-
E-----------5-------7-------8-----3-3-3-3-5-5-5-5-3-3-3-3-1-1-1-1--|-


Please, email me your comments. Thanks.
  development and support by
dmitry ivanov