rock
 
|tablatures   |lyrics   |discussion forums   |more tabs @ XGuitar.com

AC DC tabs

Who Made Who bass tab

Tabbed By: Mr. Tinkertrain (MrTinkertrain1@hotmail.com)
Artist: AC/DC
Song: "Who Made Who"
Album: AC/DC Live

|-------------------------|-------------------------|-------------------------|----------------|
|-------------------------|-------------------------|-------------------------|---------------*|
|-0-0-0-0-0-0-0-0---------|-0-0-0-0-0-0-0-0---------|-0-0-0-0-0-0-0-0---------|-0-0-0-0-0-0-0-*|
|-------------------------|-------------------------|-------------------------|----------------|

|-------------------------|-------------------------|-------------------------|-----------------|
|-------------------------|-------------------------|-------------------------|-----------------|
|-------------------------|-------------------------|-------------------------|-----------------|
|-0-0-0-0-0-0-0-0---------|-0-0-0-0-0-0-0-0---------|-0-0-0-0-0-0-0-0---------|-0-0-0-0-0-0-0-0-|

Who made who...
|-------2-------2---------2-|-------------------------|-------2--------2-------2-|
|----2-------2--------2-----|-------------------------|----2--------2-------2----|
|-0-------0--------0--------|-0-0-0-0-0-0-0-0---------|-0--------0-------0-------|
|---------------------------|-------------------------|--------------------------|
  development and support by
dmitry ivanov