rock
 
|tablatures   |lyrics   |discussion forums   |more tabs @ XGuitar.com

AC DC tabs

Whiskey On The Rocks guitar tab

Whiskey On The Rocks by AC/DC
tabbed by Ben Leikness

intro:
/ e-----------7--------7--------------- \
  b------0h7-----0h7------0------------
  g------------------------------------
  d------------------------------------
  a------------------------------------
  e---7--------------------------------

  e-----3------3-----------------------
  b-----3------3-----------------------
  g-----0------2-----------------------
  d-----0------0------2----------------
  a-----0------0------2----------------
\ e-----3------2------0---------------- / *3


e-----------7--------7---------------
b------0h7-----0h7------0------------
g------------------------------------
d------------------------------------
a------------------------------------
e---7--------------------------------

e------------------------------------
b------------------------------------
g------------------------------------
d------------------------------------
a----2p1p0---------------------------
e----------4p3p2p0-------------------
________________________________________________________

Fig. 1
e-----------------------------------
b---------3-------------------------
g---------2-----2-------------------
d---4-----0---- 2-----------2-------
a---2-----------0-----------2-------
e---0-----------------------0-------

These 2 are not the same. Listen for timing on the "A" 
chord. All the chords are correct but there are 3 different 
timing variations.

e-----------------------------
b---------3-------------------
g---------2-----2-------------
d---4-----0---- 2----2--------
a---2-----------0--- 2--------
e---0----------------0--------
(Play both 6 times)
________________________________________________________
Fig. 2
e-----------------------------------
b---------2-------3p2---------------
g-------- 2-------2--------2--------
d---4-----2-------2--------2----2---
a---2-----0-------0--------0----2---
e---0---------------------------0---

e---------------------------
b---------------------------
g---------2-----------------
d----4----2------------2----
a----2----0------------2----
e----0-----------------0----

e----------------------------------
b----------------------------------
g----------------------------------
d----------------------------------
a-------2p1p0----------------------
e---------------4p3p2p0------------
  development and support by
dmitry ivanov