rock
 
|tablatures   |lyrics   |discussion forums   |more tabs @ XGuitar.com

AC DC tabs

Whiskey On The Rocks bass tab

Intro/chorus:

G ----------------
D ----------------
A 2~--------------
E --3-20~0~0~3-20~

Verse:

G ------------
D -0-------0--
A 2--0----2-0-
E -----0-----0

During guitar solo and outro:

G ----------
D -0-----0--
A 2---0-2--0
E ---0----0-


Thatís it, pretty easy, thanks for looking
  development and support by
dmitry ivanov