rock
 
|tablatures   |lyrics   |discussion forums   |more tabs @ XGuitar.com

AC DC tabs

What's Next To The Moon guitar tab

WHAT'S NEXT TO THE MOON - AC/DC

by Stephan Mueller (s.mueller@hit.handshake.de)

                Intro & Verse:(Both guitars)

                e|-----------------------------------------------------
                b|-----------------------------------------------------
                g|-----------------------------------------------------
                D|-0--------0--2----0-----------0--2----0---------0--2-
                A|----0-----0--2--------0-------0--2--------0-----0--2-
                E|-------0------------------0------------------0-------

                e|-----------------------------------------------------
                b|-----------------------------------------------------
                g|-----------------------------------------------------
                D|-0--------0--2----0-----------0--2----0---------0--2-
                A|----0-----0--2--------0-------0--2--------0-----0--2-
                E|-------0------------------0------------------0-------

                e|-----------------------------------------------------
                b|-----------------------------------------------------
                g|-0--------0--2----0-----------0--2-------------------
                D|----0-----0--2--------0-------0--2----0---------0--2-
                A|-------0------------------0---------------0-----0--2-
                E|---------------------------------------------0-------

                Chours:

                    (guitar 1, Malcolm)
                e|---------------------------|
                b|---------3-------3---------|
                g|---------2-------2---------|
                D|-2---2---0-------0---2---2-|
                A|-2---4---------------4---2-|
                E|---------------------------|

                    (guitar 2, Angus)
                e|---------------------------|
                b|---------3------3----------|
                g|-----2---2------2----2-----|
                D|-2---2---0------0----2---2-|
                A|-2---0---------------0---2-|
                E|-0-----------------------0-|



  development and support by
dmitry ivanov