rock
 
|tablatures   |lyrics   |discussion forums   |more tabs @ XGuitar.com

AC DC tabs

The Razor's Edge bass tab

The razors edge - 1990 AC/DC
Standard tuning
E,A,D,G
I didnt TAB the prtecise amount of notes for the intro but if you listen to the song you
be able to figure it out for yourself.

intro
G-------------------------------------------------------------------------|
D-------------------------------------------------------------------------|
A-------------------------------------------------------------------------|
E--3----3----3--3-3-3-3-3-3-3-3-3-3-3-3-3-3-0--0-0-0-0-0-0-0-0-0-0-0-0-etc|
CHORUS

G---------------------------------------------------------|
D---------------------------------------------------------|
A-1-1-1-1-1-2-2-2-2-2-0-0-0-0-0-1-1-1-1-1-1-3-3-3-3-3-3---|
E---------------------------------------------------------|
  'here comes the razors edge

VERSE
G-------------------------------------|
D-------------------------------------|
A-------------------------------------|
E-0-0-0-0-0-0-0-0-0-0-0-0-0-0-0-0etc.-|

CHORUS
G----------------------------------------------------------|
D----------------------------------------------------------|
A-1-1-1-1-1-2-2-2-2-2-0-0-0-0-0-0-1-1-1-1-1-1-3-3-3-3-3-3--|
E----------------------------------------------------------|x2

G----------------|
D----------------|
A----------------|
E-0--0--0-4-3-2--|
x3

G--------------------------------------------------------------------------|
D--------------------------------------------------------------------------|
A-1-1-1-1-1-0-2-2-2-2-2-0-1-1-1-1-1-0-2-2-2-2-2----------------------------|
E----------------------------------------------3----0----3-----(drum roll)-|
 'razors edge.....'
solo
G----------------------------------|
D----------------------------------|
A-3-3-3-3-1-1-1-1-3-3-3-3-1-1-1-1--|
E----------------------------------|
cont'd
G---------------|
D---------------|
A---------------|
E-0--0--0-4-3-2-|
x10 I think.

CHORUS
G---------------------------------------------------|
D---------------------------------------------------|
A-1-1-1-1-1-2-2-2-2-2-0-0-0-0-0-1-1-1-1-1-3-3-3-3-3-|
E---------------------------------------------------|

G-----------------------------------------------------------------|
D-----------------------------------------------------------------|
A-1-1-1-1-1-1-1-2-2-2-2-2-2-2-0-0-0-0-0-0-1-1-1-1-1-1-3-3-3-3-3-3-|
E-----------------------------------------------------------------|
   'now here it comes the razors edge,the razors edge...'
G----------------|
D----------------|
A----------------|
E-0--0--0--4-3-2-|
play till the end of the song
  development and support by
dmitry ivanov