rock
 
|tablatures   |lyrics   |discussion forums   |more tabs @ XGuitar.com

AC DC tabs

The Honey Roll guitar tab

The Honey Roll by AC/DC
tabbed by Ben Leikness

INTRO:

E-------------------------------------------
B-------------------------------------------
G-------------------------------------------
D----------3------------3-------------------
A----1H2--------1H2-------------------------
E------------------------------3--2--0------

E--------------------------------------------------------------
B--------------------------------------------------------------
G-----------------------------------------------------------2--
D----2---------2---------------------------------2----------2--
A--------1H2-------------------7--------1H2-----------------0--
E----------------------4H5------------------------------S4-----

E----------------------------------------------
B----------------------------------------------
G----------------------------------------------
D----------3------------3----------------------
A----1H2--------1H2----------------------------
E------------------------------3--2--0---------

E------------------------------------------------------------------
B------------------------------------------------------------------
G---------------------------------------------------------2--------
D----2---------2-------------------------------2----------2----2---
A--------1H2-------------------7-------1H2----------------0----2---
E-------------------4H5-----------------------------S4---------0---

E-------------------------------------------------
B-------------------------------------------------
G-------------------------------------------------
D----------3------------3-------------------------
A----1H2--------1H2-------------------------------
E------------------------------3--2--0------------

E-----------------------------------------------------------------
B-----------------------------------------------------------------
G------------------------------------------------------2----------
D----2---------2----------------------------2----------2------2---
A--------1H2------------------7------1H2---------------0------2---
E--------------------4H5--------------------------S4----------0---

E--------------------------------------------------
B--------------------------------------------------
G--------------------------------------------------
D----------3------------3--------------------------
A----1H2--------1H2--------------------------------
E------------------------------3--2--0-------------

E--------------------------------------------------------------
B--------------------------------------------------------------
G--------------------------------------------------------------
D----2---------2-----------------------------2-----------------
A--------1H2-----------------7-------1H2-----------------------
E--------------------4H5---------------------------3--2--0-----
  development and support by
dmitry ivanov