rock
 
|tablatures   |lyrics   |discussion forums   |more tabs @ XGuitar.com

AC DC tabs

That's The Way I Wanna Rock N' Roll guitar tab

That's The Way I Wanna Rock N' Roll 1988
AC/DC
Blow Up Your Video

Standard Tuning: E,A,D,G,B,e

|-------------------------|-------------------------|
|-------------------------|-------------------------|
|-2-----------5-----------|-2-----------5-----------|
|-2-----------5-----------|-2-----------5-----------|
|-0-4-5-7-0---3-4-5-7-0---|-0-4-5-7-0---3-4-5-7-0---|
|-------------------------|-------------------------|

|-----------------------------------------------|
|-----------------------------------------------|
|-5------7-5-------7-7------10-7---12-12-12-12--|
|-5------7-5-------7-7------10-7---12-12-12-12--|
|-3------5-3-------5-5------8--5---10-10-10-10--|
|-----------------------------------------------|

|----------|
|----------| Ending Chord After Verse
|-2--------|
|-2--------|
|-0--------|
|----------|

Rhythm for Solo

|-------------------------|-------------------------|
|-------------------------|-------------------------|
|-2-----------5-----------|-2-----------5-----------|
|-2-----------5-----------|-2-----------5-----------|
|-0-4-5-7-0---3-4-5-7-0---|-0-4-5-7-0---3-4-5-7-0---|
|-------------------------|-------------------------|

|-------------------------|
|-------------------------|
|-5-----------5-----------|
|-5-----------5-----------|
|-3-4-5-7-0---3-4-5-7-0---|
|-------------------------|

Ending Chords of the Song

|----------------------------|
|----------------------------|
|-2-2-2-2-2-2-2-2-2-2-2-2-2--| Free Time
|-2-2-2-2-2-2-2-2-2-2-2-2-2--|
|-0-0-0-0-0-0-0-0-0-0-0-0-0--|
|----------------------------|

Sorry, I couldn't get the lead.

Tabbed by: Speedy D
Tabbed: 11/28/04
Band: AC*DC
Title: That's The Way I Wanna Rock N' Roll
  development and support by
dmitry ivanov