rock
 
|tablatures   |lyrics   |discussion forums   |more tabs @ XGuitar.com

AC DC tabs

Soul Stripper guitar tab

Soul Stripper by AC/DC
tabbed by Clemens Fehlow

Bass theme
G|-------------------------|------------------------|
D|-------------------------|------------------------|
A|-------------------------|------------------------|
E|--7--5--7----7--5--7--7--|----5--7--5--7--5--7----|

  Guitars:
E|-------------------|------------------|-------------------|
B|-------------------|------------------|-------------------|
G|--4----------------|------------------|--2----------------|
D|--4----------------|------------------|--2----------------|
A|--2----------------|------------------|--0----------------|
E|-------------------|------------------|-------------------|

|------------------|-------------------|------------------|-------------------|
|------------------|-------------------|------------------|-------------------|
|------------------|-------------------|------------------|-------------------|
|------------------|--2----------------|------------------|--5----------------|
|------------------|--2----------------|------------------|--5----------------|
|------------------|--0----------------|------------------|--3----------------|
                          and so on with solo guitar:
|------------------------|-------------------|------------------|
|------------------------|-------------------|------------------|
|------------------------|--4----------------|------------------|
|--5--5--5--5--5--7------|--4----------------|------------------|
|--5--5--5--5--5--7------|--2----------------|------------------|
|--3--3--3--3--3--5------|-------------------|------------------|


 verse:                                 we talked...
|------------------|------------------|-------------------|
|------------------|------------------|-------------------|
|------------------|------------------|--4----------------|
|------------------|------------------|-------------------|
|------------------|------------------|-------------------|
|------------------|------------------|-------------------|
                     (notes played seperately by two guitars)
|--7----------------|--5--------6--------|--7----------------|
|-------------------|--------------------|-------------------|
|-------------------|--2--------3--------|--4----------------|
|-------------------|--------------------|-------------------|
|-------------------|--------------------|-------------------|
|-------------------|--------------------|-------------------|
  oh I thought...                          (notes played seperately
|--------------------|--10-7---------------|--5--------6--------|
|--------------------|---------------------|--------------------|
|--7-4---------------|---------------------|--2--------3--------|
|--------------------|---------------------|--------------------|
|--------------------|---------------------|--------------------|
|--------------------|---------------------|--------------------|
by two guitars)      then she made me...
|--7----------------|--------------------------|--------------------------|
|-------------------|--------------------------|--------------------------|
|--4----------------|--------------------------|--------------------------|
|-------------------|--------------------------|--5--5--5--5--5--5--5--5--|
|-------------------|-----5--5--5--5--5--5--5--|--5--5--5--5--5--5--5--5--|
|-------------------|--3--3--3--3--3--3--3--3--|--3--3--3--3--3--3--3--3--|
                                                     then she made me...
|--------------------------|------------------------|--------------------------|
|--------------------------|------------------------|--------------------------|
|--------------------------|------------------------|--------------------------|
|--4--2--4----4--2--4-2-4--|----2--4--2--4--2--4----|--------------------------|
|--2--0--2----2--0--2-0-2--|----0--2--0--2--0--2----|-----5--5--5--5--5--5--5--|
|--------------------------|------------------------|--3--3--3--3--3--3--3--3--|

|--------------------------|-------------------------|-------------------|
|--------------------------|-------------------------|-------------------|
|--------------------------|-------------------------|-------------------|
|--5--5--5--5--5--5--5--5--|--4--2--4----4--2--2-----|-------------------|
|--5--5--5--5--5--5--5--5--|--2--0--2----2--0--0--2--|------2------------|
|--3--3--3--3--3--3--3--3--|----------------------0--|------0------------|
 soul stripper                              she took...
|--------------------|--------------------|-------------------|
|--------------------|--------------------|-------------------|
|--4--------------2--|-----------------4--|----------------4--|
|--4--------------2--|--------2--------4--|----------------4--|
|--2--------------0--|--------2--------2--|----------------2--|
|--------------------|--------0-----------|-------------------|
                       soul stripper...
|--------------------|--------------------|--------------------|
|--------------------|--------------------|--------------------|
|----4--2------------|--4--------------2--|-----------------4--|
|----4--2------------|--4--------------2--|--------2--------4--|
|----2---------------|--2--------------0--|--------2--------2--|
|--------------------|--------------------|--------0-----------|

|------------------|---------------------------|
|------------------|---------------------------|
|------------------|---------------------------|
|------------------|---------------------------|
|------------------|---------------------------|
|------------------|--5--9--10--11--12--5------|

 2nd verse and solo:
|-------------------|------------------|---------------------|------------------|
|-------------------|------------------|---------------------|------------------|
|--4----------------|------------------|--2---------------4--|------------------|
|--4----------------|------------------|--2--------2------4--|------------------|
|--2----------------|------------------|--0--------2------2--|------------------|
|-------------------|------------------|-----------0---------|------------------|

|------------------|---------------------|------------------|-------------------|
|------------------|---------------------|------------------|-------------------|
|------------------|--2---------------4--|------------------|--4----------------|
|------------------|--2--------2------4--|------------------|--4----------------|
|------------------|--0--------2------2--|------------------|--2----------------|
|------------------|-----------0---------|------------------|-------------------|
  development and support by
dmitry ivanov