rock
 
|tablatures   |lyrics   |discussion forums   |more tabs @ XGuitar.com

AC DC tabs

Snowballed guitar tab

Snowballed by AC/DC
tabbed by Clemens Fehlow

 Intro:
|-------------------|------------------------|------------------------|
|-------------------|------------------------|------------------------|
|-------------------|------------------------|------------------------|
|----------------7--|----7----------------7--|----7----------------7--|
|----------------5--|----4----------------5--|----4----------------5--|
|-------------------|-------0--0----0--0-----|-------0--0----0--0-----|

|------------------------|-------------------------|
|------------------------|-------------------------|
|------------------------|-------------------------|
|----7-------------------|----------------0-----7--|
|----4----------------0--|-------0--1--2--------5--|
|-------0--0----0--0-----|----3--------------0-----|
                        you could see...
|------------3----2----|---------------------2--|----------3----2----|
|------------3----3----|---------------------3--|----------3----3----|
|----9--9----0----2----|--2-------2-------2--2--|----------0----2----|
|----9--9----0----0----|--2-------2-------2--0--|----------0----0----|
|----7--7--------------|--0-------0-------0-----|--------------------|
|------------3---------|-------3-------3--------|----------3---------|
 miles and miles...
|---------------------2--|----------3----2----|
|---------------------3--|----------3----3----|
|--2-------2-------2--2--|----------0----2----|
|--2-------2-------2--0--|----------0----0----|
|--0-------0-------0-----|--------------------|
|-------3-------3--------|----------3---------|
 women drinkin'...
|---------------------2--|----------3----2----|
|---------------------3--|----------3----3----|
|--2-------2-------2--2--|----------0----2----|
|--2-------2-------2--0--|----------0----0----|
|--0-------0-------0-----|--------------------|
|-------3-------3--------|----------3---------|
 I'm gonna make...
|-----------------------|------------------|
|-----------------------|------------------|
|--2-------2-------2----|------------------|
|--2-------2-------2----|------------------|
|--0-------0-------0----|------------------|
|-------3-------3-------|------------------|
 snowballed
|---------------------|--0-----------------------|---------------------|--0--------------------|
|------------------3--|--------------------------|------------------3--|-----------------------|
|-----2------2--4-----|-----4--2--0--2--0--------|-----2------2--4-----|-----4--2--0--2--------|
|-----2---------------|--------------------2--0--|-----2---------------|--------------2--------|
|-----0---------------|--------------------------|-----0---------------|--------------0--------|
|--0------------------|--------------------------|--0------------------|-----------------------|

|---------------------|--0-----------------------|------------------|-------------------|
|------------------3--|--------------------------|------------------|-------------------|
|-----2------2--4-----|-----4--2--0--2--0--------|-----2------------|-------------------|
|-----2---------------|--------------------2--0--|-----2------------|----------------7--|
|-----0---------------|--------------------------|-----0------------|----------------5--|
|--0------------------|--------------------------|--0---------------|-------------------|
  development and support by
dmitry ivanov