rock
 
|tablatures   |lyrics   |discussion forums   |more tabs @ XGuitar.com

AC DC tabs

Sin City guitar tab

Date: Sun, 04 Jan 1998 00:00:00 +0100
From: s.mueller@hit.handshake.de (Stephan Mueller)
Subject: Tab: Sin City by AC/DC

Sin City by AC/DC (Young/Young & Scott) off the album 'Powerage' 1978
--------                                Tabbed by S.Mueller

b=bend  r=release p=pull off  ub=unison bend  ph=pinch harmonics

                      4 Times     then...   Patt.1  (3 Times)
N.C.                   E5 B5 D5 A               E      B  D  A
e ----------------- e -------------.-------- e -----------2----------
B ----------------- B -------3--2--.-------- B -----------3--2-------
G ----------------- G ----4--2--2--.-------- G -----1--4--2--2-------
D ----------------- D -2--4--0--2--.-------- D -----2--4--0--2-------
A ------2-5-0-2---- A -2--2-----0--.-------- A -----2--2-----0-------
E --3-5---------0-- E -0-----------.--0--3-- E -0---0-----------0-3--

                   Patt.2
        E  B (G)
e  ---------------.--2----2---2--2-|---2--2-2---2--------
B  -----------0---.--3----3---3--3-|---3--3-3---3--------
G  --------4--0---.--2----2---2--2-|---2--2-2---2--------
D  -----2--4--0---.--0----0---0--0-|---0--0-0---0--------
A  -----2--2--0---.----------------|---------------------
E  -0---0---------.----------------|---------------------

Pre-Solo  (with fig.2 2 Times!)
        p      p     p     p     p       p     p     p
e  -0-12-0-0-10-0-0-9-0-0-7-0-0-5-0-0-0-3-0-0-5-0-0-3-0-0
B  ------------------------------------------------------
G  ------------------------------------------------------
D  ------------------------------------------------------
A  ------------------------------------------------------
E  ------------------------------------------------------

     p     p     p     p     p     p     p     p     bend~~~~~ b ~~~
e  -5-0-0-3-0-0-5-0-0-3-0-0-5-0-0-3-0-0-5-0-0-3--0-0---------15-17-
B  -------------------------------------------------3(5)-----------
G  ----------------------------------------------------------------
D  ----------------------------------------------------------------
A  ----------------------------------------------------------------
E  ----------------------------------------------------------------

Solo (with fig.1 (7 times))
         E   B              D        A      E
~~~~~~~~~                       bend~~~~       b    b  hold bend
e  --------15-12-----------12----------------------------
B  ---------------15-12-------15-17-----\-0--------------
G  ---------------------14--------------------2-4--2-4-4-
D  ------------------------------------------------------
A  ------------------------------------------------------
E  ------------------------------------------------------
    D           A
                     release~~~~~~~~
e  ------------------------------------------------------
B  ------------------------------------------------------
G  -4--4--4--4--4--4--2-------------0--4-2-0-4-2-0-4-2-0-
D  ------------------------------------------------------
A  ------------------------------------------------------
E  ------------------------------------------------------
                                 D                   A

e  ------------------------------------------------------
B  ------------------------------------------------------
G  4-2-0-7-5-0-7-5-0-7-5-0-7-5-0-9-7-0-9-7-0-11-9-0-12-10
D  ------------------------------------------------------
A  ------------------------------------------------------
E  ------------------------------------------------------

                            E               B
                            ~~~~~           b       b~~~~~
e  --------------------------------12---12-----12--------
B  ------------------------------12---15----------15-17--
G  0-13-11-0-14-12-0-14\---14-------------14-16----------
D  ------------------------------------------------------
A  ------------------------------------------------------
E  ------------------------------------------------------

     D        A                       E           B
                                            ~~         ~~
e  -15-12--12--------------------------------------------
B  -----
  development and support by
dmitry ivanov