rock
 
|tablatures   |lyrics   |discussion forums   |more tabs @ XGuitar.com

AC DC tabs

Shot Of Love guitar tab

AC/DC - Shot Of Love
Tabbed By: MyDingALing456
Email: anguswalk789@yahoo.com

Tuning: Standard (E A D G B E)



AC/DC: Shot of Love from The Razorís Edge(1990)

Intro:
E|----------------------------------
B|--------3-------------3-----3-----
G|-----2--2----------2--2-----2--2--
D|--4--2--0--2----4--2--0--2--0--2--
A|--4--0-----2----4--0-----2-----0--
E|--2--------0----2--------0--------

Angus:x6
E|-----------------
B|-----3-----------
G|--4--2-----2-----Let all chords ring.
D|--4--0--2--2--2--
A|--2-----2--0--2--
E|--------0-----0-

Malcolm:x6
E|------------------------
B|------------3-----------
G|--4-4--4-4--2-----2-----
D|--4-4--4-4--0--2--2--2--
A|--2-2--2-2-----2--0--2--
E|---------------0-----0-

Pre-Chorus:x2
E|-----------------
B|-----------------
G|--2-----2-----4--
D|--2--2--2--2--4--
A|--0--2--0--2--2--
E|-----0-----0-----

Chorus:x2

Angus:
E|-------------------------------------
B|-------------------------------------
G|--2-----------4-------2-----------4--
D|--2-----2-----4-------2-----2-----4--
A|--0-----2-----2-------0-----2-----2--
E|--------0-------------------0--------
  Shot   of   Love     Shot  of    Love

Malcolm:
E|-----------------------------------------------------------
B|-----------------------------------------------------------
G|--2----------4-----4-4--4-4----2----------4------4-4--4-4--
D|--2-----2----4-----4-4--4-4----2-----2----4------4-4--4-4--
A|--0-----2----2-----2-2--2-2----0-----2----2------2-2--2-2--
E|--------0----------------------------0---------------------
  Shot   of   Love		  Shot   of    Love

Repeat all of that again.



Solo:

Malcolm:
E|------------------------------------
B|-------------------3-------3--------
G|--2-------------2--2-------2--2--4--Play this twice.
D|--2--2--4--4-4--2--0----2--0--2--4--
A|--0--2--4--4-4--0-------2-----0--2--
E|-----0--2--2-2----------0-----------

Play Verse 2 times.

Then Pre-Chorus.

Chorus: x3

Then play the verse until the end of the song
  development and support by
dmitry ivanov