rock
 
|tablatures   |lyrics   |discussion forums   |more tabs @ XGuitar.com

AC DC tabs

Shes Got Balls bass tab

Intro
G--------------------------------------
D--------------------------------------
A--3/12---10--7--5--3------------------
E--------------------------------------

main riff
G--------------------------------------------------------------
D--------------------------------------------------------------
A--0--0--0--0-3--0--0--0--------0--0--0-3--0--0--0--0-----------   repeat
E-------------------------3-h5------------------------3-h5------

prechorus
G------------------------------------------------------------------------
D------------------------------------------------------------------------
A-------------3--3---0--0--0--0-3--0--0--0-------0--0--0-3--0--0--0------repeat
E--1----3----------------------------------3-h5---------------------3-h5-

chorus/ guitar solo
G--------------------------------
D--------------------------------
A--0--0--0--0--0--0--3--3--0----      repeat
E--------------------------------
outro

G---------------------------------
D--------------------------------
A--0--0--0--0--3/10--7--5--3--0--
E--------------------------------

this goes perfect with the song, for all you hard core AC/DC fans out there who listen to more than just "Shook Me All Night Long".
  development and support by
dmitry ivanov