rock
 
|tablatures   |lyrics   |discussion forums   |more tabs @ XGuitar.com

AC DC tabs

Shake A Leg guitar tab

Shake A Leg


  Intro (2x):
E|-------------------|------------------|-------------------|
B|-------------------|------------------|-------------------|
G|-------------------|------------------|----------------2--|
D|----------------2--|------------------|----------------2--|
A|----------------2--|------------------|----------------0--|
E|----------------0--|------------------|-------------------|

|--------------------|-------------------|------------------|
|--------------------|-------------------|------------------|
|--------------------|-------------------|------------------|
|-----2--------------|----------------2--|------------------|
|-----2--------------|----------------2--|------------------|
|-----0--------------|----------------0--|------------------|

|--------------------|
|--------------------|
|----------------2---|
|----------------2---|
|----------------0---|
|--------------------|

 Idle juveniles...
|--------------------|--------------------|------------------|
|--------------------|--------------------|------------------|
|-----------------2--|--------------------|------------------|
|----2------------2--|----2------------2--|------------------|
|----2------------0--|----2------------2--|------------------|
|----0---------------|----0------------0--|------------------|

|-------------------|--------------------|--------------------|
|-------------------|--------------------|--------------------|
|----------------2--|-----------------2--|--------------------|
|----------------2--|----2------------2--|----2------------2--|
|----------------0--|----2------------0--|----2------------2--|
|-------------------|----0---------------|----0------------0--|

|------------------|---------------------|---------------------|
|------------------|---------------------|---------------------|
|------------------|---------------------|---------------------|
|------------------|--------2-------2----|--------2-------2----|
|------------------|--------2-------2----|--------2-------2----|
|------------------|--------0----3--0----|--------0----3--0----|

|---------------------|------------------|
|---------------------|------------------|
|---------------------|------------------|
|--------2-------2----|------------------|
|--------2-------2----|------------------|
|--------0----3--0----|------------------|

 Theme + Verse:
|-------------------|-----------------------|-------------------------|
|-------------------|-----------------------|-------------------------|
|-------------------|-----------------------|-------------------------|
|----------------2--|-------2---------------|----------------------2--|
|----------------2--|-------2-------2--2----|-----4--4-----5--5----2--|
|----------------0--|----3b-0----4----------|--5--------7----------0--|

|-----------------------|-------------------------|----------------------|
|-----------------------|-------------------------|----------------------|
|-----------------------|-------------------------|----------------------|
|-------2---------------|----------------------2--|------2----2----2--2--|
|-------2-------2--2----|-----4--4-----5--5----2--|------2----2----2--2--|
|----3b-0----4----------|--5--------7----------0--|------0----0----0--0--|

|----------------------|-----------------------|--------------------------|
|----------------------|-----------------------|--------------------------|
|----------------------|-----------------------|--------------------------|
|------2----2----2--2--|-------2---------------|-----------------------2--|
|------2----2----2--2--|-------2-------2--2----|-----4--4-----5--5-----2--|
|------0----0----0--0--|----3b-0----4----------|--5--------7--------0--0--|

|-------------------------|----------------------|-----------------------|
|-------------------------|----------------------|-----------------------|
|-------------------------|----------------------|-----------------------|
|----2--2--2--2--2--2--2--|------2----2----2--2--|-------2---------------|
|----2--2--2--2--2--2--2--|------2----2----2--2--|-------2-------2--2----|
|----0--0--0--0--0
  development and support by
dmitry ivanov