rock
 
|tablatures   |lyrics   |discussion forums   |more tabs @ XGuitar.com

AC DC tabs

Safe In New York City bass tab

Artist: AC/DC
Song: Safe in New York City
Album: Stiff Upper Lip




G-------------------------------------
D-------------------------------------
A--------------------------------------
E--3-5---3--7---3--0-------------------


G----------------------------------------------
D-----------------------------------------------
A-----------------------------------------------
E---0-5-0-6-0-5-0-6-3-0-5-0-3-0-----------------
verse riff

G--------------------------------
D--------------------------------
A---------------------------------
E-0-------------------------------


G---------------------------------------------
D---------------------------------------------
A---------------------------------------------
E-0-6-5-3-0---6-5-3-0----6-5-3-0--------------


G--------------------------------
D--------------------------------
A---------------------------------
E-0-------------------------------

chorus

G--------------------------------
D--------------------------------
A---------------------------------
E-0-------------------------------


G----------------------------------------------
D-----------------------------------------------
A-----------------------------------------------
E---0-5-0-6-0-5-0-6-3-0-5-0-3-0-----------------
  development and support by
dmitry ivanov