rock
 
|tablatures   |lyrics   |discussion forums   |more tabs @ XGuitar.com

AC DC tabs

Rock Your Heart Out guitar tab

AC/DC - Rock Your Heart Out

tabbed by lmnop07

guitar 1
   ()= not first time, but each other time follwing it
E|---------3----2----|----------2------|
B|---------3----3----|-----3----3------|
G|-(2)-2---0----2----|-----0----2---2--|
D|-(2)-2---0----0----|-----0----0---2--|
A|-(0)-0---x---------|-----x--------0--|
E|---------3---------|-----3-----------| repeat

  guitar 2
E------------------------------------------|
B------------------------------------------|
G---2----2----2----2----2----2----2----2---|
D---2----2----2----2----2----2----2----2---|
A---0----0----0----0----0----0----0----0---|
E------------------------------------------|

	E-----------------------------------------------------------------|
	B-----------------------------------------------------------------|
	G---2-------------------------------------------------------------|
	D---2-------------------------------------------------------------|
	A---0-------------------------------------------------------------|
	E-----------------------------------------------------------------|
        "rock you little rock your little rock your little heart out"

E------------3----|--------3-----------|---------------|--------------------------|
B---3----1---3----|----1---3---1---3---|---3---1---0---|---1-----------0----3-----|
G---2-x--0---0----|----0---0---0---2---|---2---0---0---|---0---2--2----0----2-----|
D---0-x--x---0----|----x---0---x---0---|---0---x---0---|---x---2--2----0----0-----|
A-----x--3--------|----3-------3-------|-------3-------|---3---0--0---------0-----|
E------------3----|--------3-----------|-----------3---|---------------3----------|

E|----------------|---------2----------|--------2----------------|
B|--0---3---0-----|-----0---3----------|---0----3----0----2--2---|
G|--0---2---0---2-|-2---0---2----------|---0----2----0----2--2---|
D|--0---0---0---2-|-2---0---0----------|---0----0----0----2--2---|
A|------0-------0-|-0------------------|------------------0--0---|
E|--3-------3-----|-----3--------------|---3---------3-----------|

                                 ()rhythem guitar)
E|------------------------------(3)--7-7-7-7-7-7-7-7-7-7-7-7-7-7-7-7-7-7-7-7-7-7-7-7-7-7-7-7-7-|
B|------------------------------(3)--8-8-8-8-8-8-8-8-8-8-8-8-8-8-8-8-8-8-8-8-8-8-8-8-8-8-8-8-8-|
G|---2--------------------------(0)------------------------------------------------------------|
D|---2--------------------------(0)------------------------------------------------------------|
A|---0-----------------------------------------------------------------------------------------|
E|------------------------------(3)------------------------------------------------------------|
  rock your little heart out    rock_______ rock your little heart out"

SOLO
E|---------------------------------------------------------------------------------------------|
B|----15b-r^13-15b-------15b--15b--15b--15b----~~~~~~~~~~~~-\-/10\--8b-------------------------|
G|-------------------------------------------------------------------------7--5~~~~--\--5------|
D|----------------------------------------------------------------------7----------------------|
A|---------------------------------------------------------------------------------------------|
E|---------------------------------------------------------------------------------------------|

E|-----------------------------------------------------------------------------8b--b--8-5------|
B|----------------------------------------------------------------------------------------8^5--|
G|--------------5--<7>-<7>~~~-5---7---5--7--4--5--2--4------------5^7b--7b--\-----------------7|
D|--7^5^7~~~~~~-----------------7----------------------5b-r-^5---------------------------------|
A|---------------------------------------------------------------------------------------------|
E|---------------------------------------------------------------------------------------------|

E|-------------------------------------------------------8---8---8-8~~~~~--x-8\2/--------------|
B|-5--------------------------------------------8---10-----7---7---7~~~~~--x-7\1/-15b-15b-15b--|
G|---7^5---7---7-5-5---7~~~~~-5--8---7--9~~~~-9---9----9---------------------------------------|
D|-------7---7---------------------------------------------------------------------------------|
A|---------------------------------------------------------------------------------------------|
E|---------------------------------------------------------------------------------------------|
                                 D     D    D                   D    D     D
E|----15--15--15--15--15-\3/17-------17------17------------------------------------------------|
B|--15b15-15b15-15b15-15b\3/17---20b----20b-----20b~~~~~~~-8^5-----5---5-----------------------|
G|-------------------------------------------------------------7^8---7---<5>-7-5^7~~~~~~~~-----|
D|---------------------------------------------------------------------------------------------|
A|---------------------------------------------------------------------------------------------|
E|---------------------------------------------------------------------------------------------|

ENDING
E|--15b-15b-15b-\------------------------------------------------------------------------------|
B|----------------15b--15--13--12--------------------------------------------------------------|
G|--------------------------------14--12-------------------------------------------------------|
D|---------------------------------------------------------------------------------------------|
A|---------------------------------------------------------------------------------------------|
E|---------------------------------------------------------------------------------------------|
                                          "youve gotta rock your little rock your little.....
E|------5-------------------------------------------------------------------------------------|
B|----5---8^5-8^5---5------------------------------------------------------------/15--/17\----|
G|----------------8---8^7^5-----------------------------------------------------------------2-|
D|--------------------------7-5-------------------------------------------------------------2-|
A|------------------------------7-6-5\3b-3b^3-----------------------------------------------0-|
E|--------------------------------------------5^3---------------------------------------------|
  . heart out          you gotta rock your little heart right, right out    yeah"
  development and support by
dmitry ivanov