rock
 
|tablatures   |lyrics   |discussion forums   |more tabs @ XGuitar.com

AC DC tabs

Playing With Girls guitar tab

AC/DC - Playing With Girls

tabbed by lmnop07

  g1        g2
E-------| |-----------------------|
B-------| |-----------------------|
G-------| |-----------------------|repeat this over every 6th bar g2 plays E
D---2---| |-----------------------|
A---2---| |--5^2--5^2--5^2--5^2---|
E---0---| |-----0----0----0----0--|

Main Riff
	G1
	E------------------------|
	B------------------------|
	G------------------------|repeat
	D------------------------|
	A------------------------|
	E--7^0-5^0-3^0-5^0-3^0---|
	G2
	|------------------------|
	|------------------------|
	|------------------------|
	|--9---7---5---7---5-----|
	|--9---7---5---7---5-----|
	|--7^0-5^0-3^0-5^0-3^0-0-|
	
	g1
	|-----------------------|
	|-----------------------|repeat
	|-----------------------|
	|-----------------------|
	|--7^0-5^0-3^0-5^0-3^0--|
	|-----------------------| back to above
	g2
	|------------------------|
	|------------------------|
	|--9---7---5---7---5-----|
	|--9---7---5---7---5-----|
	|--7^0-5^0-3^0-5^0-3^0-0-|
	|------------------------|

		---3-------3-----3-3-3-|
		---3-------3-----3-3-3-|
		---0-------0-----0-0-0-|
		---0-------0-----------|
		-----------------------|
		---3-------3-----3-3-3-| repeat

E---5--3--1--3--1--0-------------------|
B---5--3--1--3--1--0--3--2--1--0--0--0-|
G--------------------------------------|
D--------------------------------------|
A--------------------------------------|
E--------------------------------------|

E---3-3-3-3-3-3-3-3-3-3-3-3-3-3-3-3-3---|
B---3-3-3-3-3-3-3-3-3-3-3-3-3-3-3-3-3---|
G---0-----------0-------------0---------|
D---0-----------0-------------0---------|
A---2-----------2-----------------------|
E---3-----------3-------------3---------|

                     CHORUS
E--3--------------|---------------------------|
B--3---------3----|---------------------------|
G--0---------2----|---------------------------|
D--0---------0----|---------------------------|
A-----------------|---0-2-3-5-5--5-3-2-2------|
E--3--------------|----------------------3--0-|

E|----------------------------|----------------------------------------------------------------|
B|----------8-8-8-8-8-8-8-8-8-|----------------------------------------------------------------|
G|----------7-7-7-7-7-7-7-7-7-|----------------------------------------------------------------|
D|----------6-6-6-6-6-6-6-6-6-|-11^9----11^9----11^9----11^9----11^9----11^9----11^9----11^9---|
A|--0-2-3-5-7-7-7-7-7-7-7-7-7-|------0-------11------0-------11------0-------11------0-------0-|
E|----------------------------|----------------------------------------------------------------|

E|-12b-12b-------------------------------------------------------------------------------------|
B|-12b-12b----12-----------------15b(17)-r\----------------------------------------------------|
G|---------14---14-14^12^14^12-----------------------------------------------------------------|
D|----------------------------^14-----------11^9^0-11^9^0-11^9^0-11^9^0-11^9^0-11^9^0-11^9^0---|
A|---------------------------------------------------------------------------------------------|
E|---------------------------------------------------------------------------------------------|
tremelo > > > > > > >
E|-12b-12b-12b-12b-12b-||-12-------------------------------------------------------------------|
B|-12b-12b-12b-12b-12b-||-12------12-----------------------------------------------------------|
G|---------------------||-14b-----12--15--14-----------12-12-12-12---------------16-16-16-16---|
D|---------------------||-------------15--14--14-14-14-12-12-12-12-14-14-14-14---16-16-16-16---|
A|---------------------||---------------------14-14-14-------------14-14-14-14-----------------|
E|---------------------||----------------------------------------------------------------------|

E|---------------------------------------------------------------------------------------------|
B|----------------------------------------------------------------12-12-12-12-12-12-12-12-12---|
G|--14-14-14-14--12-12-12-12-14-14-14-14-12-12-12-12--------------12-12-12-12-12-12-12-12-12---|
D|--14-14-14-14--12-12-12-12-14-14-14-14-12-12-12-12-14-14-14-14--12-12-12-12-12-12-12-12-12---|
A|---------------------------------------------------14-14-14-14-------------------------------|
E|---------------------------------------------------------------------------------------------|

E|---------------------------------------------------------------------------------------------|
B|-----------------------------------/15-15-15-15-15-15-15-15-15-13-15-15-15-15-15-13-13-15-15-|
G|-----------------------------------/14-14-14-14-14-14-14-14-14-14-14-14-14-14-14-14-14-14-14-|
D|--9^7^0-9^7^0-9^7^0-9^7^0--7b(9)---/12-12-12-12-12-12-12-12-12-12-12-12-12-12-12-12-12-12-12-|
A|-----------------------------------/---------------------------------------------------------|
E|---------------------------------------------------------------------------------------------|

E|-12b-12-12b-12----12----12-12--15^12---17-19-17-19-19b------12-----12----12----12----12-12-12|
B|---------------15----15--------------15-----------------15b----15b----15----15-------12-12-12|
G|----------------------------------------------------------------------------------\x--x--x--x|
D|----------------------------------------------------------------------------------\x--\-\-\-\|
A|----------------------------------------------------------------------------------\x--/-/-/-/|
E|---------------------------------------------------------------------------------------------|

SOLO 2                              repeat
E|--------------------------------------------||-------------------------||--------------------|
B|--9-9-9-9--7-7-7-7--5-5-5-5-7-7-7--5-5-5----||---15-15-15-15-15-15-15--||--------------------|
G|--9-9-9-9--7-7-7-7--5-5-5-5-7-7-7--5-5-5-7--||---12-12-12-12-12-12-12--||-16-16-16-14-14-14--|
D|-----------------------------------------7--||---12-12-12-12-12-12-12--||-16-16-16-14-14-14--|
A|--------------------------------------------||-------------------------||--------------------|
E|--------------------------------------------||-------------------------||--------------------|

E|-----------------12b--------------------------------------<15><15>---------------------------|
B|-----------------------15-12----------------12~~~\-------------------------------------------|
G|--12-12-12-14-14-------------14-12-----12b--12~~~\--<0>------------4b-4b--4^2^0--------------|
D|--12-12-12-14-14-------------------14b------------------------------------------2b--~~~------|
A|---------------------------------------------------------------------------------------------|
E|---------------------------------------------------------------------------------------------|

E|-------------------------||
B|-------------------------||
G|-------------------------||
D|--------0----------------||
A|--0-2-4---4-0-2-4-2-0----||
E|----------------------0--||
  development and support by
dmitry ivanov