rock
 
|tablatures   |lyrics   |discussion forums   |more tabs @ XGuitar.com

AC DC tabs

Meltdown guitar tab

Meltdown by AC/DC
tabbed by Clemens Fehlow

 Intro:
E|-------------------|-----------------------|-------------------|-----------------------|
B|-------------------|-----------------------|-------------------|-----------------------|
G|-------------------|-----9--7----6--9------|-------------------|-----9--7----6--9------|
D|----------------5/-|--6--7--9----7--7------|-------------------|-----7--9----7--7------|
A|-------------------|-----------------------|----------------5/-|--7--------------------|
E|-------------------|-----------------------|----------------0--|--0--------------------|

Both guitars:
|-------------------|------------------------|------------------------|
|-------------------|------------------------|------------------------|
|-------------------|-----9--7----6--9-------|-----9--7----6--9-------|
|-------------------|-----7--9----7--7-------|-----7--9----7--7-------|
|----------------5/-|--7------------------5/-|--7------------------5/-|
|----------------0--|--0------------------0--|--0------------------0--|
|                   |                        |                        |
|-------------------|------------------------|------------------------|
|-------------------|------------------------|------------------------|
|-------------------|-------------2--2-------|-------------2--2-------|
|-------------------|--2--2-------2--2-------|--2--2-------2--2-------|
|----------------0--|--2--2--5----0--0----0--|--2--2--5----0--0----0--|
|-------------------|--0--0------------------|--0--0------------------|

Angus to verse:       !!!
|------------------------|
|------------------------|
|-----9--7----6--9-------|
|-----7--9----7--7----5/-|
|--7---------------------|
|--0---------------------|

Verse:
|------------------------|------------------------|------------------------|
|------------------------|------------------------|------------------------|
|-----9--7----6--9-------|-----9--7----6--9-------|-----9--7----6--9-------|
|--6--7--9----7--7----5/-|--6--7--9----7--7----5/-|--6--7--9----7--7----5/-|
|------------------------|------------------------|------------------------|
|------------------------|------------------------|------------------------|
|                        |                        |                        |
|------------------------|------------------------|------------------------|
|------------------------|------------------------|------------------------|
|------------------------|------------------------|------------------------|
|-------------2--2-------|-------------2--2-------|-------------2--2-------|
|--2--2--5----0--0----0--|--2--2--5----0--0----0--|--2--2--5----0--0----0--|
|--0--0------------------|--0--0------------------|--0--0------------------|

Bridge to chorus:
                     man  it's getting hot     hot
|------------------------|------------------------|
|---------------------7~-|---------------------7~-|
|-----9--7----6--9----7~-|------0--2--0--2--0--7~-|
|--6--7--9----7--7-------|------0--2--0--2--0-----|
|------------------------|------------------------|
|------------------------|------------------------|
|                        |                        |
|------------------------|------------------------|
|------------------------|------------------------|
|---------------------7~-|------0--2--0--2--0--7~-|
|-------------2--2----7~-|------0--2--0--2--0--7~-|
|--2--2--5----0--0-------|------------------------|
|--0--0------------------|------------------------|

         hot   I say man  it's getting hot     hot         hot  it's getting hotter
|------------------------|------------------------|------------------------|
|---------------------7~-|---------------------7~-|---------------------7~-|
|------0--2--0--2--0--7~-|------0--2--0--2--0--7~-|------0--2--0--2--0--7~-|
|------0--2--0--2--0-----|------0--2--0--2--0-----|------0--2--0--2--0-----|
|------------------------|------------------------|------------------------|
|------------------------|------------------------|------------------------|

|------------------------|------------------------|----
  development and support by
dmitry ivanov