rock
 
|tablatures   |lyrics   |discussion forums   |more tabs @ XGuitar.com

AC DC tabs

Meanstreak guitar tab

Intro Angus:
-------------------------------------------------------
--4~~6--4-4-4-4-4-6----4~~6--4-4-4-4-4-6---------------
--5~~5--5-5-5-5-5-5----5~~5--5-5-5-5-5-5---------------
-------------------------------------------------------
-------------------------------------------------------
-------------------------------------------------------
Malcolm:
-------------------------------------------------------
-------------------------------------------------------
-------------------------------------------------------
-----6--8---------------6--8---------------------------
--8-------8--6--8--6--8~-----8--6--5--3--6--5--3-------
-------------------------------------------------------
(“Animal, Animal...”)
-------------------------------------------------------
-------------------------------------------------------
-3--------------3-------------3-------------5--3-3-3---
-3--------------3-------------3-------------5--3-3-3---
-1--/8--6-2/3---1--/8--6-2/3--1--/8--6-2/3--3--1-1-1---
-------------------------------------------------------
(“Meanstreak”)
-------------------------------------------------------
--4~~6--4-4-4-4-4-6----4~~6--4-4-4-4-4-6---------------
--5~~5--5-5-5-5-5-5----5~~5--5-5-5-5-5-5---------------
-------------------------------------------------------
-------------------------------------------------------
-------------------------------------------------------
  development and support by
dmitry ivanov