rock
 
|tablatures   |lyrics   |discussion forums   |more tabs @ XGuitar.com

AC DC tabs

Live Wire guitar tab

Live Wire by AC/DC
tabbed by Jason Bineider

	Into:(Guitar 1, Malcolm)
	  N.C__________________________________________ 
	e|----------------------------------------------|
	b|----------------------------------------------|
	g|----------------------------------------------|
	D|-2---------4----2---------4------2---------2--|
	A|-0----2----2----0----2----2------0----2----4--|
	E|------0--------------0----------------0-------|

	   A  B   A  B   A  B   A  B
	e|----------------------------|
	b|----------------------------|
	g|----------------------------|
	D|-2--4---2--4---2--4---2--4--|
	A|-0--2---0--2---0--2---0--2--|
	E|----------------------------|

	Verse:
	     A   E  B/A  B      8X
	e||---------------------||------------------------------
	b||---------------------||------------------------------
	g||--2-------4---4------||--4-H-4--4---2-------4---4----
	D||--2---2---4---4------||--4-H-4--4---2---2---4---4----
	A||--0---2---0---2------||--0-H-2--2---0---2---0---2----
	E||------0--------------||-----------------0------------

	Chours: 
	   B B B B B   A    G   D/F     A     G  D/F	 A   G   D/F
	e|-----------|---------3----2------------3---2----------3----2-----
	b|-----------|---------3----3------------3---3----------3----3-----
	g|-----------|-2-------0----2------2-----0---2------2---0----2-----
	D|-4-4-4-4-4-|-2-------0-----------2-----0----------2---0----------
	A|-2-2-2-2-2-|-0-------2-----------0-----2----------0---2----------
	E|-----------|---------3---(2)-----------3--(2)---------3---(2)----

	e|---------------------------------|
	b|---------------------------------|
	g|-------------------------------4-|
	D|------------------4------------4-|
	A|-2-2-2-2-2-2-2-2--2------------2-|
	E|-0-0-0-0-0-0-0-0-----------------|

	Inrerlude: (guitar 2, Angus)
			   ^^^^
	e|--------------------|
	b|--------------------|
	g|-----------------5--|
	D|-7-5-7-5-7-5-7-5----|
	A|--------------------|
	E|--------------------|
	 (guitar 1, Malcolm)
	 P.M_________________
	e|--------------------|
	b|--------------------|
	g|-----------------5--|
	D|-7-5-7-5-7-5-7-5----|
	A|--------------------|
	E|--------------------|

	Solo:
	Angus???

	Malcolm

	e|----------------|------3-2-|
	b|-----------3----|------3-3-|
	g|-4-2-4-2-4-2----|-1----0-2-|
	D|-4-2-4-2-4-0----|-2----0-0-|
	A|-2-0-2-0-2------|-2----2---|
	E|----------------|-0----3---|
	 Play 8 times

	Interlude
			   A E B B
	  PM_____________ ^^^^
	e|-----------------------------------|
	b|-----------------------------------|
	g|-----------------5--FEEDBACK>>>>>>>>>>>>>>>>>>>>>>>>
	D|-7-5-7-5-7-5-7-5-------------------|
	A|-----------------------------------|
	E|-----------------------------------|
	  play 8 times,    9th time feedback.

	Play verse, chours and adlib solo.


========================================================================

Live Wire by AC/DC
tabbed by Clemens Fehlow

  Intro:                                                                      4x
E|------------------|-------------------|-------------------|-------------------||
B|------------------|-------------------|-------------------|-------------------||
G|*-----------------|----------------2--|-------------------|----------------4-*||
D|*-----------------|----------------2--|----------------2--|----------------4-*||
A|------------------|----------------0--|----------------2--|----------------2--||
E|------------------|-------------------|----------------0--|-------------------||

                                                                              2x
|------------------|--------------------|------------------|--------------------||
|------------------|--------------------|------------------|--------------------||
|*-----------------|-----------------4--|------------------|-----------------4-*||
|*-----------------|------------2----4--|------------------|------------2----4-*||
|------------------|------------2----2--|------------------|------------2----2--||
|------------------|------------0-------|------------------|------------0-------||

                          both guitars:
|------------------|---------------------|-------------------|---------------------|
|------------------|---------------------|-------------------|---------------------|
|------------------|--------2---------4--|--4----------------|--------2---------4--|
|------------------|--------2----2----4--|--4----------------|--------2----2----4--|
|------------------|--------0----2----2--|--2----------------|--------0----2----2--|
|------------------|-------------0-------|-------------------|-------------0-------|

|-------------------|---------------------|-------------------|---------------------|
|-------------------|---------------------|-------------------|---------------------|
|--4----------------|--------2---------4--|--4----------------|--------2---------4--|
|--4----------------|--------2----2----4--|--4----------------|--------2----2----4--|
|--2----------------|--------0----2----2--|--2----------------|--------0----2----2--|
|-------------------|-------------0-------|-------------------|-------------0-------|

                                            well if you're lookin...
|-------------------|---------------------|-------------------|---------------------|
|-------------------|---------------------|-------------------|---------------------|
|--4----------------|--------2---------4--|--4----------------|--------2---------4--|
|--4----------------|--------2----2----4--|--4----------------|--------2----2----4--|
|--2----------------|--------0----2----2--|--2----------------|--------0----2----2--|
|-------------------|-------------0-------|-------------------|-------------0-------|

|-------------------|---------------------|-------------------|---------------------|
|-------------------|---------------------|-------------------|---------------------|
|--4----------------|--------2---------4--|--4----------------|--------2---------4--|
|--4----------------|--------2----2----4--|--4----------------|--------2----2----4--|
|--2----------------|--------0----2----2--|--2----------------|--------0----2----2--|
|-------------------|-------------0-------|-------------------|-------------0-------|

                                            I'm as cool...
|-------------------|---------------------|---------------------|---------------------|
|-------------------|---------------------|---------------------|---------------------|
|--4----------------|--------2---------4--|--4---------------4--|--------2---------4--|
|--4----------------|--------2----2----4--|--4----------2----4--|--------2----2----4--|
|--2----------------|--------0----2----2--|--2----------2----2--|--------0----2----2--|
|-------------------|-------------0-------|-------------0-------|-------------0-------|

|---------------------|---------------------|---------------------|---------------------|
|---------------------|---------------------|---------------------|---------------------|
|--4---------------4--|--------2---------4--|--4---------------4--|--------2---------4--|
|--4----------2----4--|--------2----2----4--|--4----------2----4--|--------2----2----4--|
|--2----------2----2--|--------0----2----2--|--2----------2----2--|--------0----2----2--|
|-------------0-------|-------------0-------|-------------0-------|-------------0-------|

                              to chorus:        live wire...
|---------------------|------------------------|-------------------|--------------------|
|---------------------|------------------------|--3----------------|--3----3------------|
|--4---------------4--|----4--4----4--4--4--4--|--0----------------|--0----0------------|
|--4----------2----4--|----4--4----4--4--4--4--|--0----------------|--0----0------------|
|--2----------2----2--|----2--2----2--2--2--2--|-------------------|--------------------|
|-------------0-------|------------------------|--3----------------|--3----3------------|

 live wire...                             live wire...
|-------------------|--------------------|-------------------|--------------------|
|-------------------|--------------------|--3----------------|--3----3------------|
|--4----------------|--4----4------------|--0----------------|--0----0------------|
|--4----------------|--4----4------------|--0----------------|--0----0------------|
|--2----------------|--2----2------------|-------------------|--------------------|
|-------------------|--------------------|--3----------------|--3----3------------|

                                            to verse:
|--------------------------|--------------------------|
|--------------------------|--------------------------|
|--------------------------|--------------------------|
|--4--4--4--4--4--4--4--4--|--4--4--4--4--4--4--4--4--|
|--4--4--4--4--4--4--4--4--|--4--4--4--4--4--4--4--4--|
|--2--2--2--2--2--2--2--2--|--2--2--2--2--2--2--2--2--|

after 2nd chorus:
|--------------------------|--------------------------|------------------------|------------------------|
|--------------------------|--------------------------|------------------------|------------------------|
|--------------------------|--------------------------|----------------7-------|----------------7-------|
|--4--4--4--4--4--4--4--4--|--4--4--4--4--4--4--4--9--|----7--9--7--9-------9--|----7--9--7--9-------9--|
|--4--4--4--4--4--4--4--4--|--4--4--4--4--4--4--4-----|------------------------|------------------------|
|--2--2--2--2--2--2--2--2--|--2--2--2--2--2--2--2-----|------------------------|------------------------|
  development and support by
dmitry ivanov