rock
 
|tablatures   |lyrics   |discussion forums   |more tabs @ XGuitar.com

AC DC tabs

Live Wire bass tab

Tabbed by: Tom (Q_ubert@hotmail.com)
Artist: AC/DC
Song: Live Wire
Album: High Voltage

 Intro & Verse 1,2,3

G---------------------------------------------------------
D---------------------------------------------------------
A-2-2-2-2-2-2-2-2-2-2-2-2-2-2-2-2-2-2-Etc…----------------
E---------------------------------------------------------	

Chorus

G-------------------------------------------------------------------------------
D-------------------------------------------------------------------------------
A-0-0-----3-3-----1-1-----2-2-----2-2-----3-3-----0-0-0-0-0-0-0-Etc…
E--------------------------------------------------------------------------------

Solo

G--------------------|--------------------|-------------------------------------------
D--------------------|--------------------|-------------------------------------------
A-3-0-3-0-3-5-x8-|-2-0-2-0-2-4-x7-|-0-2-0-2-0-2-0-2---0-22--2-22-0--22---0-0-0-0Etc---
E--------------------|--------------------|-------------------------------------------

-----------------------------------
-----------------------------------
-3-0-2-2-x5------------------------        Go to Verse
-----------------------------------
  development and support by
dmitry ivanov