rock
 
|tablatures   |lyrics   |discussion forums   |more tabs @ XGuitar.com

AC DC tabs

Little Lover bass tab

AC/DC – Little Lover
Album: High Voltage
Year : 1976
Tabbed by: Fongi


Intro x2 & Verse x2
G|-----------------------------------------------------------|
D|-----------------------------------------------------------|
A|-----------------------------------------------------------|
E|---3-—3-3--3-3-—3-3-—3-3--3-3-—3-3—-3-3---3----------------|

G|-----------------------------------------------------------|
D|-----------------------------------------------------------|
A|-----------------------------------------------------------|
E|---0-—0-0--0-0-—0-0-—0-0--0-0-—0-0—-0-0---0----------------|


Pre-Chorus x1
G|-----------------------------------------------------------|
D|-----------------------------------------------------------|
A|-----------------------------------------------------------|
E|---5-—5-5--5-5-—5-5-—5-5--5-5-—5-5—-5-5---5----------------|

G|-----------------------------------------------------------|
D|-----------------------------------------------------------|
A|--3-3--3-3--3-3--3-3---3-3-3-3-3-3-3-3---------------------|
E|-----------------------------------------------------------|


Chorus x2
G|------------------------2--|       |-----------------------|
D|2---0----------------------|       |-----------------------|
A|-------2-------------------|       |-----------------------|
E|----------3----0---0-------| x3    |3-3-3-3-3-3-3-3-3-3-3-3| x1


Solo x1
G|-----------------------------------------------------------|
D|-----------------------------------------------------------|
A|-----------------------------------------------------------|
E|---3-—3-3--3-3-—3-3-—3-3--3-3-—3-3—-3-3---3----------------|

G|-----------------------------------------------------------|
D|-----------------------------------------------------------|
A|-----------------------------------------------------------|
E|---5-—5-5--5-5-—5-5-—5-5--5-5-—5-5—-5-5---5----------------|


G|-----------------------------------------------------------|
D|-----------------------------------------------------------|
A|-----------------------------------------------------------|
E|---7-—7-7--7-7-—7-7-—7-7—7-7-7-7-7-7-7-9-9-9-9-9-----------|




After the 3rd Chorus is a break!
After this break just play on the Intro Part and fade out!
That’s it! Wow that’s my first tab! I hope it’s right!

Adios Fongi :-)
  development and support by
dmitry ivanov