rock
 
|tablatures   |lyrics   |discussion forums   |more tabs @ XGuitar.com

AC DC tabs

Lets Make It bass tab

all the riffs are here, just put em in order

G|-----------------------------------------------------------------||
D|-----------------------------------------------------------------||
A|---------------------------------5-5-5-5-5-5-5-5-----------------||
E|-0-0-0-0-0-0-0-0-3-3-3-3-3-3-3-3-----------------5-5-5-5-5-5-5-5-||x2

G|--------------------------------||
D|--------------------------------||
A|-3---3---3---3---3--------------||
E|---1---3---1---1---3~-----------||x3

G|---------------||
D|-0~0~0~0~------||
A|---------------||
E|--3-3-3-3------||

G|----------------||
D|----------------||
A|-------5~-------||
E|-0~-3~---5~-----||

G|---------------------||
D|---------------------||
A|-5---5---5---5---5---||
E|---3---5---3---3---5-||
  development and support by
dmitry ivanov