rock
 
|tablatures   |lyrics   |discussion forums   |more tabs @ XGuitar.com

AC DC tabs

High Voltage bass tab

AC/DC - High Voltage
Tabbed By: cliffwilliamskicksass
Email: blackheart56677@hotmail.com

Tuning: Standard (E A D G)

This probably isnt right but i think it is pretty good

intro
G|----------------------------------------------------------------||
D|----------------------------------------------------------------||
A|----------------------------------------------------------------||
E|--0-0--0-0--0-0--0-0--0-1-2-------------------------------------||

verse
G|----------------------------------------------------------------||
D|----------------------------------------------------------------||
A|--0-1-2-3-5-5--5-5-5---5------5-do that as mant times as needed-||
E|--------------5-------5-5-5--5----------------------------------||

pre chorus
G|----------------------------------------------------------------||
D|----------------------------------------------------------------||
A|----------------------------------------------------------------||
E|--0-1-2--0-1-2--------------------------------------------------||

chorus
G|----------------------------------------------------------------||
D|----------------------------------------------------------------||
A|--0-0-0-0-0-3-3-3-5-5-5--0-3-4------x2--------------------------||
E|-------------------------------4-3-2----------------------------||


G|----------------------------------------------------------------||
D|----------------------------------------------------------------||
A|--3-3-3-3-3-5-5-5------------x-2--------------------------------||
E|------------------1-1-2-2-3-3-----------------------------------||


G|----------------------------------------------------------------||
D|----------------------------------------------------------------||
A|--3-3-3-3-3-------5-5-5-----------------------------------------||
E|------------3-3-3-----------------------------------------------||

verse
G|----------------------------------------------------------------||
D|----------------------------------------------------------------||
A|--0-1-2-3-5-5--5-5-5---5------5-do that as mant times as needed-||
E|--------------5-------5-5-5--5----------------------------------||

pre chorus
G|----------------------------------------------------------------||
D|----------------------------------------------------------------||
A|----------------------------------------------------------------||
E|--0-1-2--0-1-2--------------------------------------------------||

chorus
G|----------------------------------------------------------------||
D|----------------------------------------------------------------||
A|--0-0-0-0-0-3-3-3-5-5-5--0-3-4------x2--------------------------||
E|-------------------------------4-3-2----------------------------||


G|----------------------------------------------------------------||
D|----------------------------------------------------------------||
A|--3-3-3-3-3-5-5-5------------x-2--------------------------------||
E|------------------1-1-2-2-3-3-----------------------------------||


G|----------------------------------------------------------------||
D|----------------------------------------------------------------||
A|--3-3-3-3-3-------5-5-5-----------------------------------------||
E|------------3-3-3-----------------------------------------------||

solo
G|----------------------------------------------------------------||
D|----------------------------------------------------------------||
A|------5-4-0-0 as many times as needed---------------------------||
E|--0-0-----------------------------------------------------------||

chorus
G|----------------------------------------------------------------||
D|----------------------------------------------------------------||
A|--0-0-0-0-0-3-3-3-5-5-5--0-3-4------x2--------------------------||
E|-------------------------------4-3-2----------------------------||


G|----------------------------------------------------------------||
D|----------------------------------------------------------------||
A|--3-3-3-3-3-5-5-5------------x-2--------------------------------||
E|------------------1-1-2-2-3-3-----------------------------------||


G|----------------------------------------------------------------||
D|----------------------------------------------------------------||
A|--3-3-3-3-3-------5-5-5-----------------------------------------||
E|------------3-3-3-----------------------------------------------||

AC/DC type ending
  development and support by
dmitry ivanov