rock
 
|tablatures   |lyrics   |discussion forums   |more tabs @ XGuitar.com

AC DC tabs

Hell Or High Water guitar tab

Band: AC/DC
Song: Hell or High Water
Album: Fly on the wall 1985

This is my first tab, i hope you enjoy this. I couldn't find this song anywhere
so i sat and listened to the track and played along with it and i got it.

Enjoy :-)

Guitar 1 intro:
               4x                   4x
e|---------------|--------------------
b|--8-8-6-6-5-6--|--10-10-8-8-7-7-8---
g|--5-5-5-5-5-5--|---7--7-7-7-7-7-7---
d|---------------|--------------------
a|---------------|--------------------
e|---------------|--------------------

Guitar 2 intro:       Listen to track to figure out the timing when malcolm
                    comes in, in the intro.

e|------------------
b|------------------
g|--2-2-----2-2-----
d|--2-2-----2-2-----
a|--0-0-----0-0-----
e|------------------

Chorus:
                                  4x
e|----------------------------------
b|-------------------10-10-9-9-10---
g|---------2-----4----9--9-9-9--9---
d|--4-4-4--2--2--4------------------
a|--2-5-2--0--2--2------------------
e|------------0---------------------

rhythm guitar 1:

e|-----------------|-------------------
b|--8-8-6-6-5-5-6--|-------------------
g|--5-5-5-5-5-5-5--|---------2-----4---
d|-----------------|--4-4-4--2--2--4---
a|-----------------|--2-5-2--0--2--2---
e|-----------------|------------0------

rhythm guitar 2:

e|---------------------------------------
b|---------------------------------------
g|--2----2----2----2-----------2-----4---
d|--2----2----2----2----4-4-4--2--2--4---
a|--0----0----0----0----2-5-2--0--2--2---
e|--------------------------------0------

after second chorus the chords are
G,G,G,G,G,G,G,G,G,G.....A,D,D,A....(A,G,G,D...A,C,D 3x)

Malcolm does what angus does in the begining but on the power chord C
he goes C,C,F,F,C,C,F he does the 4x then he moves up to the D and does
D,D,G,G,D,D,G

Please rate this tab i plan to redo the end of this song better in tabs, but everytime i push the backspace button
it erases  the hole damn thing.


Enjoy " ANGUS101 "
  development and support by
dmitry ivanov