rock
 
|tablatures   |lyrics   |discussion forums   |more tabs @ XGuitar.com

AC DC tabs

Got You By The Balls bass tab

intro/verse

g-----------------------------
d-----------------------------
a-0-3-0-0-3-0-0-5-3-0-3
e------------------------------

pre-chorus

g---------------------
d---------------------
a-3-3-3-3-3-3-3-3
e---------------------

chorus

g-------------------------------
d-------------------------------
a-0-3-0-0-3-0-0-5-3-0-3
e-------------------------------

1st half of solo

g------------------------------
d------------------------------
a-0-3-0-0-3-0-0-5-3-0-3
e------------------------------

other half

g-------------------------
d-------------------------
a-5-3-0-3-0-3-0------
e-------------------------

its pretty much one riff
  development and support by
dmitry ivanov