rock
 
|tablatures   |lyrics   |discussion forums   |more tabs @ XGuitar.com

AC DC tabs

Go Down bass tab

opening and chorus
|--------------------------------------------------------------------------|
|--------------------------------------------------------------------------|
|-0-3-0-----0-3-0-----0-3-0---0-3-0---0-3-0---0-3-0---0-3-0---0-3-0--0-3-0-|
|--------------------------------------------------------------------------|

Ruby ruby......
|-----------------------------------------------------------------------------|
|-----------------------------------------------------------------------------|
|--------------------------3--3--X-3--3--3--3--X-3----5--5-X-5--5--5--5--X--5-|
|-5--5--X-5--5--5--5--X-5-----------------------------------------------------|
play repeatadly till guitars step up to

|------------------------|
|------------------------|
|-7--7--X-7--7--7--7-X-7-|
|------------------------|

then to chorus
tabbed by B.J.Lisko
JLisko44@aol.com
  development and support by
dmitry ivanov