rock
 
|tablatures   |lyrics   |discussion forums   |more tabs @ XGuitar.com

AC DC tabs

Give It Up bass tab

By:glssjwTx

tHIS I tHINNK IS ONE OF THE MOST EASISEST BASS PARTS EVER.LITERALLY.

TUNING:HALF STEP DOWN (Eb Ab Db Gb)


  INTRO/CHORUS
G|---------------------------------------------------------------------------|
D|---------------------------------------------------------------------------|
A|---------------------------------------------------------------------------|
E|-000-5555555555555-000-2222222222222-000-5555555555555-000-2222222222222---|

  VERSE
G|---------------------------------------------------------------------------|
D|---------------------------------------------------------------------------|
A|---------------------------------------------------------------------------|
E|-000-5~-000-2~-000-5~-000-2~-000-------------------------------------------|

  BRIDGE 1 (PALM MUTED PART AFTER 2ND CHORUS)
G|---------------------------------------------------------------------------|
D|--------------------------------X------------------------------------------|
A|-------------------------------X-------------------------------------------|
E|-44444444444444445555555555555X--------------------------------------------|

  BRIDGE 2 ("dont be afraid,") x2
G|---------------------------------------------------------------------------|
D|---------------------------------------------------------------------------|
A|---------222-------22---------222--------22--------------------------------|
E|-555-000----000-44----555-000-----000-44-----------------------------------|

  BRIDGE
G|---------------------------------------------------------------------------|
D|---------------------------------------------------------------------------|
A|-------22-------22-------22-------22---------------------------------------|
E|-55-00----00-44----55-00----00-44------------------------------------------|

G|---------------------------------------------------------------------------|
D|---------------------------------------------------------------------------|
A|---------222--------22---------222--------22-------------------------------|
E|-555-000-----000-44----555-000-----000-44----------------------------------|

  BRIDGE 2 (THE SLOW PART)
G|---------------------------------------------------------------------------|
D|---------------------------------------------------------------------------|
A|---------------------------------------------------------------------------|
E|-5~~-000-2~--000--5~-000-2~-000-5~-000-2~-000-5~-000-2~-000----------------|

  OUTRO
G|---------------------------------------------------------------------------|
D|---------------------------------------------------------------------------|
A|---------------------------------------------------------------------------|
E|-44-44-44-44-4024-55-55-55-55-55-44-44-44-44-4024-55-55-55-55-5-000--------|

ANY QUESTIONS, COMMENTS, CORRECTIONS, REQUESTS,PLEASE FEEL FREE TO E-MAIL ME
@
 GLSJWtx@NETSCAPE.NET
  development and support by
dmitry ivanov