rock
 
|tablatures   |lyrics   |discussion forums   |more tabs @ XGuitar.com

AC DC tabs

For Those About To Rock bass tab

For Those About to Rock
-Ac/dc
Tabbed by Joey Lombardi (permanentwaves@hotmail.com)

Standard Tuning (G,D,A,E)


Enter at 0:41

G|-------------------|
D|-------------------|
A|-------------------|
E|-3---2---0---------|

Chorus

G|---------------------------------|
D|---------------------------------|
A|---------------------------------|
E|-7--5-------3---2--0-------------|

Verse Riff

G|-----------------------------------------------------------|
D|-----------------------------------------------------------|
A|-----------------------------------------------------------|
E|-7--7--7--7--5--5--5--5-0---0--0--0--3----0----------------|

Solo

G|-------------------|
D|-------------------|
A|-------------------|
E|-5-5-5-5-5-5-5-5---|x 6, then

G|------------------------------------|
D|-----------------5-5-5-5------------|
A|-----------5-7-5---------5-5-5-5----|
E|-5-5-5-5-5--------------------------|

G|-------------------------------------|
D|-5/7-7-7-7-7-7-7---5~~~~-------------|   ~ means let it ring
A|---------------------------5~~~~-----|
E|-------------------------------------|

G|-------------------------------------|
D|-5/7-7---7-7-7-7---5~~~~-------------|
A|-------7-------------------5~~~~-----|
E|-------------------------------------|

G|-------------------------------------|
D|-5/7-7-7-7-7-7-7---5~~~~---4~~~~-----|
A|-------------------------------------|
E|-------------------------------------|

G|-------------------------------------|
D|-5/7-7-7-7-7-7-7---------------------|
A|---------------------------5~~~~-----|
E|-------------------3~~~~-------------|

For those about to rock!

G|--R----------------------------------------|
D|--E----------------------------------------|
A|--S-----------------------5----------------|x4
E|--T-----------------3--3-----5~~~~~----7---|

G|--R--------------------------------------------------|
D|--E--------------------------------------------------|
A|--S-------------------------------5-5----------------|
E|--T-----------------3--3--3--3--3------5--5--5--5----|

Pre-verse 2

G|----------------------------------------|
D|----------------------------------------|
A|-3-3-3-3-3-3-3-3-5-5-5-5-5-5-5-5--------|
E|----------------------------------------|

Ending Riff

G|-------------------------------------------------------------------|
D|-------------------------------------------------------------------|
A|---------------------------------------------5-5-5-----------------|
E|-7-7-7-7-7-7-7-7-7-7-7-7-7-7-7-7-3-3-3-3-3-3-------5-5-5-5-5-5-5---|

Have lots of fun with the ending, he tends to pull some variations, generally based on riffs elsewhere in the song, and some octave changes. Just go crazy!
  development and support by
dmitry ivanov