rock
 
|tablatures   |lyrics   |discussion forums   |more tabs @ XGuitar.com

AC DC tabs

Flick Of The Switch bass tab

Flick Of The Switch Tab by Ac Dc, www.Ultimate-Guitar.Com

Tuning: E,A,D,G

-------------------------------------| Intro (1)
------------------------------------.|
--0-0-0-0-0-0-0-0-0-0-0-0-0-0-0-0-0-.|
-------------------------------------|

----------------------------| Intro with Variations (2)
---------------------------.| (top and bottom 1 and 2 are the intros
--0---3---5----------2-3-2-.| can be played at different times
-------------0-1-2-3--------|

-------------------------------------|
-------------------------------------| Verse
--0-3-5--0-3-5--0-3-5--0-3-5--3~~~~--|
-------------------------------------|

-------------------------------------|
------------------------------------.| Main Riff
--0-0-0-0-0-0-0-0-0-0-0-0-0-0-0-0-0-.|
-------------------------------------|

---------------------------|
--------------------------.| Main Riff with Variations
--0-0-0--3--5-------------.|
-----------------3---2-----|

----------------------------|
---------------------------.| Played during the solo
--0---3---5----------2-3-2-.|
-------------0-1-2-3--------|

Notation used:
~-vibrato
  development and support by
dmitry ivanov