rock
 
|tablatures   |lyrics   |discussion forums   |more tabs @ XGuitar.com

AC DC tabs

First Blood guitar tab

INTRO: (Angus, later Malcom)
-----------------------------------------------------------------
--2h3-3--2h3-3--2h3--3---2h3--2---2h3--3--2h3--3--2h3--3--2h3--3-
--2---2--2---2--2----2---2----3---2----2--2----2--2----2--3----2-
-----------------------------------------------------------------
-----------------------------------------------------------------
-----------------------------------------------------------------

-------3-----------------------------------------------
-------3--3--2--2h3--3--2h3--3-------------------------
--0h2-----2--2--2----2--2----2-------------------------
--0h2-----0--0-----------------------------------------
-------x-----------------------------------------------
-------3-----------------------------------------------
[___________________Repeat 4 times_____________________]


VERSE: (Keep Repeating)
-------3----------------3------------------------------
-------3--3--2----------3---3--2-----------------------
--0h2-----2--2-----0h2------2--2-----------------------
--0h2-----0--0-----0h2------0--0-----------------------
-------x----------------x------------------------------
-------3----------------3------------------------------

"..Come on baby"    "..We're gonna make it"
-------------------------------------------------------
-------------------------------------------------------
-------------------------------------------------------
--5-5-5-5-5-5-5-5------3-3-3-3-3-3-3-3-----------------
--5-5-5-5-5-5-5-5------3-3-3-3-3-3-3-3-----------------
--3-3-3-3-3-3-3-3------1-1-1-1-1-1-1-1-----------------

CHORUS:
"First Blood" (Repeat)
-------------------------------------------------------
-------------------------------------------------------
----------7--9--7--9----------------7--9--7--9--11-----
--5--6----5--7--5--7---7--9---5--6--5--7--5--7---9-----
--5--6-----------------5--7---5--6---------------------
--3--8------------------------3--8---------------------
  development and support by
dmitry ivanov