rock
 
|tablatures   |lyrics   |discussion forums   |more tabs @ XGuitar.com

AC DC tabs

Dirty Eyes guitar tab

Dirty Eyes by AC/DC
tabbed by Wes Midkiff

    Intro
E||-----------------------||
B||-----------------------||
G||-----------------------||
D||---2-----------2-------||
A||---0-----------0-------||
E||-----------------------||

Rhy. Fig. 1                      (end Rhy. Fig. 1) play 4 times
E||--------------------------------------------||
B||--------------------------------------------||
G||*------------------------------------------*||
D||*--2------2------2---2---2--2--------2--2--*||
A||---0------0------0---0---3--0--5--0--3--0---||
E||------3^-----3^-----------------------------||

Rhy. Fig. 2                 end   Rhy. Fig. 3               end
E------------------------------||------------------------------||
B------------------------------||------------------------------||
G---2--2---2---2----2--2----2--||------------------------------||
D---0--0---0---3-4-----3-4--0--||---2--2---2-------------------||
A------------------------------||---2--2---2--2----2--2----2---||
E------------------------------||---0--0---0--3-4-----3-4--0---||

Rhy. Fig. 4       end   Rhy. Fig. 5             end
E||-------------------||----------------------------||
B||-------------------||----------------------------||
G||*--2--2-----------*||--2--2----------------------||
D||*--2--2-----------*||--2--2----------------------||
A||---0--0------------||--0--0----------------------||
E||---------3--2--3---||---------3--2--3--2--3--4---||

DIRTY EYES (rhythm guitar)
Intro (1 time), then Rhy. Fig. 1 (3 time)
Hunger, yeah, hunger!
You do it  uh...___ do it good.

Do it alright, every night.
When they turn off the light, it's out of sight.
ALRLIGHT! Then Rhy. Fig. 2 (1 time)
Hypnotize          and
Rhy. Fig. 3 (1 time)
Mesmerize          with your
Rhy. Fig. 4 (2 times) Dirty eyes, your Dirty eyes,    
Rhy. Fig. 5 (1 time) Dirty eyes
Rhy. Fig. 1 (2 times)
Breathing, breathing heavy.
Heavy, heavy breathing.
Sends shivers down my spine
And I'm so glad that you're mine.
That's what turns me on and on
All night long.
Rhy. Fig. 2 (1 time)
Hypnotize          and
Rhy. Fig. 3 (1 time)
Mesmerize          with your
Rhy. Fig. 4 (2 times)
Dirty eyes,         your Dirty eyes,    
Rhy. Fig. 5 (1 time)
Dirty eyes! 
(solo) w/Rhy. Fig. 1 (1 time) Rhy. Fig. 2 (2 times) then Rhy. Fig. 3 (2 times)
Rhy. Fig. 5 (1 time) then Rhy. Fig. 1 for the rest of the song.
  development and support by
dmitry ivanov