rock
 
|tablatures   |lyrics   |discussion forums   |more tabs @ XGuitar.com

AC DC tabs

Come And Get It bass tab

Come And Get It
AC/DC
From the album: Stiff Upper Lip (2000)


Verse 0:09
G------------------------------------
D------------(7)---------------------
A---3--0-0--------0---3p2h3p2---0---- x3
E------------------------------------


Pre-Chorus  0:30
G-----------------------------------------
D-----------------------------------------
A---3-3-3-3--3-3-3-3--3-3-3-3--3-3-3-3---- x1
E-----------------------------------------

G-----------------------------------------
D-----------------------------------------
A---4-4-4-4--4-4-4-4--4-4-4-4--4-4-4-4---- x1
E-----------------------------------------

G-----------------------------------------
D-----------------------------------------
A---7-7-7-7--7-7-7-7--7-7-7-7--7-7-7-7---- x1
E-----------------------------------------

G-------------------------------------------------
D-------------------------------------------------
A---1-1---0---3---3-3----------------------------- x1
E----------------------0--0--0--0---0--0--0--0----


Chorus  0:50
G------------------------------------
D------------(7)---------------------
A---3--0-0--------0---3p2h3p2---0---- x3
E------------------------------------

G--------------------------------------------
D------------(7)-----------------------------
A---3--0-0--------0---3p2h3p2---3-2-1---0---- x1
E--------------------------------------------


Verse  1:14
G-------------------------------------
D------------(7)----------------------
A---3--0-0--------0---3p2h3p2----0---- x3
E-------------------------------------


Pre-Chorus  1:32
G-----------------------------------------
D-----------------------------------------
A---3-3-3-3--3-3-3-3--3-3-3-3--3-3-3-3---- x1
E-----------------------------------------

G-----------------------------------------
D-----------------------------------------
A---4-4-4-4--4-4-4-4--4-4-4-4--4-4-4-4---- x1
E-----------------------------------------

G-----------------------------------------
D-----------------------------------------
A---7-7-7-7--7-7-7-7--7-7-7-7--7-7-7-7---- x1
E-----------------------------------------

G-------------------------------------------------
D-------------------------------------------------
A---1-1---0---3---3-3----------------------------- x1
E----------------------0--0--0--0---0--0--0--0----


Chorus  1:54
G------------------------------------
D------------(7)---------------------
A---3--0-0--------0---3p2h3p2---0---- x3
E------------------------------------

G------------------------------
D------------------------------
A---3-0-0--3-0-0--3-0-0--------
E-------------------------5----


Bass During Solo  2:27
G----------------------------------------------
D----------------------------------------------
A----------------------------------------------
E---3--3--3--3---3--3--3--3---3--3--3--3--etc--

G------------------------------
D------------------------------
A---3-0-0--3-0-0--3-0-0-------- x3
E-------------------------5----

G-----------------------------------------
D-----------------------------------------
A---3-3-3-3--3-3-3-3--3-3-3-3--3-3-3-3----
E-----------------------------------------

G-----------------------------------------
D-----------------------------------------
A---4-4-4-4--4-4-4-4--4-4-4-4--4-4-4-4----
E-----------------------------------------

G-----------
D-----------
A---3--0----
E-----------

G----------------
D----------------
A---0--4-3--0----
E----------------


Ending  3:25
G-----------------------------------
D-----------------------------------
A-----------------------------------
E---0-0-0-0--0-0-0-0--0-0-0-0--etc--

G------------------------------------
D------------(7)---------------------
A---3--0-0--------0---3p2h3p2---0---- x2
E------------------------------------

G---------------------------------------
D------------(7)------------------------
A---3--0-0--------0---3p2h3p2---3--0----
E---------------------------------------

G------------------------------
D------------------------------
A---0---0-0-0---0-0-0-0---0----
E------------------------------

G--------
D--------
A--------
E---0----

high_voltage76@hotmail.com
  development and support by
dmitry ivanov