rock
 
|tablatures   |lyrics   |discussion forums   |more tabs @ XGuitar.com

AC DC tabs

Cant Stand Still guitar tab

Can't Stand Still (Stiff Upper Lip - 2000)

The mp3 had a really bad sound but it must be something like this.
Maybe it looks a bit confusing but it's a simple boogie structure.

 play this 4 times:                                                                             
E|----------------------------------------------------|
B|--10--0--10--0--9--0--9--0--7--0--7--0--9--0--9--0--|
G|----------------------------------------------------|
D|----------------------------------------------------|
A|----------------------------------------------------|
E|----------------------------------------------------|
 |                                                    |
E|----------------------------------------------------|
B|----------------------------------------------------|
G|----------------------------------------------------|
D|----------------------------------------------------|
A|--12----12-----11----11-----9-----9-----11----11----|
E|---7-----7------7-----7-----7-----7------7-----7----|

 then this 2 times:                                                                         
|--7--0--7--0--7--0--7--0--10--0--10--0--9--0--9--0--|
|----------------------------------------------------|
|----------------------------------------------------|
|----------------------------------------------------|
|----------------------------------------------------|
|----------------------------------------------------|
|
|----------------------------------------------------|
|----------------------------------------------------|
|----------------------------------------------------|
|--9-----9-----9-----9------9------9-----11----11----|
|--7-----7-----7-----7------7------7------7-----7----|
|----------------------------------------------------|

 then this 2 times:                                                                 
|----------------------------------------------------|
|--10--0--10--0--9--0--9--0--7--0--7--0--9--0--9--0--|
|----------------------------------------------------|
|----------------------------------------------------|
|----------------------------------------------------|
|----------------------------------------------------|
|                                                    |
|----------------------------------------------------|
|----------------------------------------------------|
|----------------------------------------------------|
|----------------------------------------------------|
|--12----12-----11----11-----9-----9-----11----11----|
|---7-----7------7-----7-----7-----7------7-----7----|

this once:                                                                              
|--9--2--9--2--11--2--11--2--12--2--12--2--11--2--11--2--|
|--------------------------------------------------------|
|--------------------------------------------------------|
|--------------------------------------------------------|
|--------------------------------------------------------|
|--------------------------------------------------------|

|--------------------------------------------------------|
|--------------------------------------------------------|
|--------------------------------------------------------|
|--11---11-----13-----13-----11-----11-----13-----13-----|
|---9----9------9------9------9------9------9------9-----|
|--------------------------------------------------------|

this once:
|--7--0--7--0--9--0--9--0--10--0--10--0--9--0--9--0--|
|----------------------------------------------------|
|----------------------------------------------------|
|----------------------------------------------------|
|----------------------------------------------------|
|----------------------------------------------------|
|
|----------------------------------------------------|
|----------------------------------------------------|
|----------------------------------------------------|
|--9-----9----11----11------9------9----11----11-----|
|--7-----7-----7-----7------7------7-----7-----7-----|
|----------------------------------------------------|

this 2 times:
|----------------------------------------------------|
|--10--0--10--0--9--0--9--0--7--0--7--0--9--0--9--0--|
|----------------------------------------------------|
|----------------------------------------------------|
|----------------------------------------------------|
|----------------------------------------------------|
|                                                    |
|----------------------------------------------------|
|----------------------------------------------------|
|----------------------------------------------------|
|----------------------------------------------------|
|--12----12-----11----11-----9-----9-----11----11----|
|---7-----7------7-----7-----7-----7------7-----7----|


Tablature by Clemens Fehlow.
  development and support by
dmitry ivanov