rock
 
|tablatures   |lyrics   |discussion forums   |more tabs @ XGuitar.com

AC DC tabs

Burnin Alive guitar tab

BURNIN' ALIVE

from the "Ballbreaker" of AC / DC


Tabbed by BRANISLAV FABIJANAC
If you want to write to me : Branigoth@free.fr


1
E--------------------------------------------------------------
B--------------------------------------------------------------
G---6-----2-----------4------6-----------2-----------4------6--
D---6-----2-----2-----4------6-----------2-----2-----4------6--
A---4-----0-----2-----2------4-----2-----0-----2-----2------4--
E---------------0--------x---------0-----------0---------x-----

This is the beginning riff. Play it with a little overdrive and with
a bluesy style and let ring the chords....

2
E--------------------------------------------------------------
B--------------------------------------------------------------
G---6--------------2-------------4-------6---------------------
D---6--------------2-------2-----4-------6---------------------
A---4--------------0-------2-----2-------4---------------------
E------0---2---4-------x---0---------x-------------------------


3
E--------------------------------------------------------------
B--------------------------------------------------------------
G---6--------------2--------------------4-------6--------------
D---6--------------2----2---------------4-------6--------------
A---4--------------0----2---------------2-------4--------------
E------0---2---4--------0---0---2---4-------x------------------

The riff after is a variant of thisone so you can hear it and play
it easy.....


The riff of the verse :

4
E--------------------------------------------------------------
B--------------------------------------------------------------
G---6-6--------------6-6---------------------------------------
D---6-6--------------6-6---------------------------------------
A---4-4----------2---4-4------------2--------------------------
E-------0--2--4------------0--2--4-----------------------------


After is : "no firewater or novocaine..."

5
E--------------------------------------------------------------
B--------------------------------------------------------------
G---6-6-6---4--------------------------------------------------
D---6-6-6---4----4-4-4---2-------------------------------------
A---4-4-4---2----4-4-4---2-------------------------------------
E----------------2-2-2---0-------------------------------------

When it says : "so watch out cause this place is gonna burn....."

6
E--------------------------------------------------------------
B--------------------------------------------------------------
G---6-6-6---4--------------------------------------------------
D---6-6-6---4--2---4---------2--------2-2-2-2--2-2-2-2---------
A---4-4-4---2--2---4---------2--------2-2-2-2--2-2-2-2---------
E--------------0---2---------0--------0-0-0-0--0-0-0-0---------


After is the chorus : "Burnin alive !....." with the riff 3


When it says "Somewhere is a little town called hope "


7
E--------------------------------------------------------------
B--------------------------------------------------------------
G---6-6----4-4-4--------6--------------------------------------
D---6-6----4-4-4--2-2---6--------------------------------------
A---4-4----2-2-2--2-2---4--------------------------------------
E-----------------0-0------------------------------------------


This is only a tablature for rhythm guitar so I didn't tabbed the solo 
and the little riffs of Angus.
  development and support by
dmitry ivanov