rock
 
|tablatures   |lyrics   |discussion forums   |more tabs @ XGuitar.com

AC DC tabs

Big Balls bass tab

AC/DC - Big Balls
Probably the greatest song ever.


G-----------------|------------------|
D-2---------2-1-0-|-------------0-1--|
A-----------------|-3---------3------|
E-----------------|------------------|
  ^   ^   ^   ^     ^   ^   ^   ^


G-----------------|------------------|
D-2---------2-1-0-|-------------0-1--|
A-----------------|-3---------3------|
E-----------------|------------------|
  ^   ^   ^   ^     ^   ^   ^   ^


G-----------------|------------------|
D-2---------2-1-0-|------------------|
A-----------------|-3-----------3/---|
E-----------------|------------------|
  ^   ^   ^   ^     ^   ^   ^   ^


G-----------------|------------------|
D-----------------|------------------|
A-5-----------5---|-2-2-2-2-2--------|
E-----------------|------------------|
  ^   ^   ^   ^     ^   ^   ^   ^


Verse
G-----------------|------------------|
D-2---------------|-----------------.| repeat several times
A-----------------|-3---------------.|
E-----------------|------------------|
  ^   ^   ^   ^     ^   ^   ^   ^


G-----------------|------------------|
D-----------------|------------------|
A-5-----------5---|-2-2-2-2-2--------|
E-----------------|------------------|
  ^   ^   ^   ^     ^   ^   ^   ^


Chorus
G-----------------|------------------|
D-2---2---2---2---|---------------0-.| repeat twice
A---------------2-|-3---3---3---3---.|
E-----------------|------------------|
  ^   ^   ^   ^     ^   ^   ^   ^


G-----------------|------------------|
D-----------------|------------------|
A-3-------5-------|-2---2---3--------|
E-----------------|------------------|
  ^   ^   ^   ^     ^   ^   ^   ^
  development and support by
dmitry ivanov