rock
 
|tablatures   |lyrics   |discussion forums   |more tabs @ XGuitar.com

AC DC tabs

Bedlam In Belgium guitar tab

AC/DC - Bedlam In Belgium
Tabbed By: MyDingALing456
Email: anguswalk789@yahoo.com

Tuning: Standard (E A D G B E)

I only know the rythm guitar part. Maybe someone else can figure out the solo.

Intro:

E|--------3--------||
B|-----3--3--3-----||
G|--2--2--0--2-----|| play 8 times
D|--2--0--0--0-----||
A|--0--------------||
E|-----------------||

Verse:

E|--------3--------||
B|-----3--3--3--3--||
G|--2--2--0--2--2--|| play 8 times
D|--2--0--0--0--0--||
A|--0--------------||
E|-----------------||

Pre Chourus:

E|-----------------||
B|--------------3--||
G|--5--------0--2--||
D|--5------0----0--||
A|--3----2---------||
E|-----------------||


E|--------3--------||
B|-----3--3--3--3--||
G|--2--2--0--2--2--|| play twice
D|--2--0--0--0--0--||
A|--0--------------||
E|-----------------||

E|----------------------------------||
B|-----------------------------3----||
G|--5----5-5-5-5-5-5--------0--2----||
D|--5----5-5-5-5-5-5------0----0----||
A|--3----3-3-3-3-3-3----2-----------||
E|----------------------------------||

E|--------3--------||
B|-----3--3--3--3--||
G|--2--2--0--2--2--|| play twice
D|--2--0--0--0--0--||
A|--0--------------||
E|-----------------||

E|----------------------------||
B|--3-------------------------||
G|--2-------------------------||
D|--0--play 14 times----------||
A|----------------------------||
E|----------------------------||

Chorus:

E|----------------------3---------||
B|-------------------3--3--3------|| play twice
G|--------7--5----2--2--0--2------||
D|--7--5--7--5----2--0--0--0------||
A|--7--5--5--3----0---------------||
E|--5--3--------------------------||

Then,play the verse and chorus again

Pre Solo:

E|------------------------3---------||
B|---------------------3--3--3------||
G|--------7--5------2--2--0--2------||
D|--7--5--7--5------2--0--0--0-x2---||
A|--7--5--5--3-x3---0---------------||
E|--5--3----------------------------||

During Solo Play Pre Chorus 3 times

Then, play the whole part again except for the solo.
  development and support by
dmitry ivanov